» » »

Puddle Of Mudd, Blurry Bass tabs (ver.3)

Artists:  A B C D E F G H I J K L M N O P Q R S T U V W X Y Z # 

Blurry Bass tabs (ver.3)

Puddle Of Mudd Tabs
 Rating:
4/5 (4 votes)
Blurry lessons Tabs too difficult? Try these video lessons and learn fast
                -------------------------------------------------------------------------------
			     BLURRY - Puddle of Mudd
-------------------------------------------------------------------------------


Tuning: Standard


The whole song is basically the same as the intro:

G|-----------------|-----------------|-----------------|-----------------|
D|-----------------|-----------------|-1-1-1-1-1-1-1-1-|-1-1-1-1-1-1-1-1-|
A|-2-2-2-2-2-2-2-2-|-4-4-4-4-4-4-4-4-|-----------------|-----------------|
E|-----------------|-----------------|-----------------|-----------------|

or, if you play higher up the fretboard:

G|-----------------|-----------------|-----------------|-----------------|
D|-----------------|-----------------|-----------------|-----------------|
A|-----------------|-4-4-4-4-4-4-4-4-|-6-6-6-6-6-6-6-6-|-6-6-6-6-6-6-6-6-|
E|-7-7-7-7-7-7-7-7-|-----------------|-----------------|-----------------|

...but from the first verse it changes slightly to:

G|-----------------|-----------------|-----------------|-----------------|
D|-----------------|-----------------|-1-1-1-1-1-1-1-1-|-1-1-1-1-1-1-----|
A|-2-2-2-2-2-2-2-2-|-4-4-4-4-4-4-4-4-|-----------------|-------------4-4-|
E|-----------------|-----------------|-----------------|-----------------|

or:

G|-----------------|-----------------|-----------------|-----------------|
D|-----------------|-----------------|-----------------|-----------------|
A|-----------------|-4-4-4-4-4-4-4-4-|-6-6-6-6-6-6-6-6-|-6-6-6-6-6-6-4-4-|
E|-7-7-7-7-7-7-7-7-|-----------------|-----------------|-----------------|
            
Submit corrections

comments powered by Disqus
↑ Back to top | Puddle Of Mudd Bass for Blurry. Lyrics for acoustic guitar and electric guitar. Tablatures and chords are parodies/interpretations of the original songs. You may use it for private study, scholarship, research or language learning purposes only