» » »

Blurry Tabs (ver.2)

Artists:  A B C D E F G H I J K L M N O P Q R S T U V W X Y Z # 

Blurry Tabs (ver.2)

Puddle Of Mudd
Rating:
4/5 (12 votes)

Tabs too difficult? Try these video lessons and learn fast.
                Blurry-Puddle of mudd
Come Clean

Even though this band is connected to Fred Durst, and he can suck a knob, i really like 
this song.

riff a (acoustic) all notes other than anything on the a string are harmonics, notes in 
parentheses (.) play when riff a is recalled

e-----------------------------------------------------------------
b-----------------------------------------------------------------
g-----5-----4-----5-----4-----5-------5-----4-----5-----4-----5---
d---4---5-----4-----5-----4-----5---4---5-----4-----5-----4-----5-
a-3-------3-----3-----3-----3-----5-------5-----5-----5-----5-----
e-----------------------------------------------------------------

e-----------------------------5-------------------------------5---
b-------------------------------5-------------------------------5-
g-----5-----4-----5-----4-------------5-----4-----5-----4----(5)--
d---4---5-----5-----4-----5---------4---4-----5-----4-----5----(0)
a-7-------7-----7-----7-----7-----7-------7-----7-----7-----7-----
e-----------------------------------------------------------------

gtr 1 play riff a

gtr 3 (acoustic)

e-3-3-3-3-3-3-3-3-3-3--3-3-3-3-3-0-0-0-0-0-0-0-0-0-0--0-0-0-0-0---
b-3-3-3-3-3-3-3-3-3-3--3-3-3-3-3-3-3-3-3-3-3-3-3-3-3--3-3-3-3-3---
g-0-0-0-0-0-0-0-0-0-0--0-0-0-0-0-2-2-2-2-2-2-2-2-2-2--2-2-2-2-2---
d-2-2-2-2-2-2-2-2-2-2--2-2-2-2-2-0-0-0-0-0-0-0-0-0-0--0-0-0-0-0---
a-3-3-3-3-3-3-3-3-3-3--3-3-3-3-3-0-0-0-0-0-0-0-0-0-0--0-0-0-0-0---
e-----------------------------------------------------------------

gtr 2. w/ delay , phaser and chorus

e-----------------------------17-15-------------------------17----
b-----------------------------------------------------------------
g-----------------------------------------------------------------
d-----------------------------------------------------------------
a-----------------------------------------------------------------
e-----------------------------------------------------------------

gtr 3

e-3--3-3--3-3-3-3--3-3-3-3-3--3--3-3--3-3-3-3--3-3-3-3-3----------
b-3--3-3--3-3-3-3--3-3-3-3-3--3--3-3--3-3-3-3--3-3-3-3-3----------
g-0--0-0--0-0-0-0--0-0-0-0-0--0--0-0--0-0-0-0--0-0-0-0-0----------
d-2--2-2--2-2-2-2--2-2-2-2-2--2--2-2--2-2-2-2--2-2-2-2-2----------
a-2--2-2--2-2-2-2--2-2-2-2-2--2--2-2--2-2-2-2--2-2-2-2-2----------
e-0--0-0--0-0-0-0--0-0-0-0-0--0--0-0--0-0-0-0--0-0-0-0-0----------

gtr 2

e-19-----------------------17-17---------------17-----------------
b-----------------------------------------------------------------
g-----------------------------------------------------------------
d-----------------------------------------------------------------
a-----------------------------------------------------------------
e-----------------------------------------------------------------

Verses: Riff A x4 ev?ry thing?s so blurry.......

e-3-3--3-3--3-3-3-3--3-3--3-3-5-5-5-5-5-5-5-5-5---5-5-5-5-5-5-----
b-3-3--3-3--3-3-3-3--3-3--3-3-5-5-5-5-5-5-5-5-5---5-5-5-5-5-5-----
g-5-5--5-5--5-5-5-5--5-5--5-5-7-7-7-7-7-7-7-7-7---7-7-7-7-7-7-----
d-5-5--5-5--5-5-5-5--5-5--5-5-7-7-7-7-7-7-7-7-7---7-7-7-7-7-7-----
a-3-3--3-3--3-3-3-3--3-3--3-3-5-5-5-5-5-5-5-5-5---5-5-5-5-5-5-----
e-----------------------------------------------------------------

e-7--0-0-0-0-0--0-0---0-0-0-0-0-0-0-0-0-0-0-0-0-0-0-0----0-0------
b-7--0-3-3-3-3--3-3---3-3-3-3-3-3-3-3-3-3-3-3-3-3-3-3----3-3------
g-9----0-0-0-0--0-0---0-0-0-0-0-0-0-0-0-0-0-0-0-0-0-0----0-0------
d-9----2-2-2-2--2-2---2-2-2-2-2-2-2-2-2-2-2-2-2-2-2-2----2-2------
a-7----2-2-2-2--2-2---2-2-2-2-2-2-2-2-2-2-2-2-2-2-2-2----2-2------
e------0-0-0-0--0-0---0-0-0-0-0-0-0-0-0-0-0-0-0-0-0-0----0-0------

e-3--3-3--3-3-3-3--3-3-3-3-3-3-5--5--5-5-5--5-5-5-5-5-5--5-5------
b-3--3-3--3-3-3-3--3-3-3-3-3-3-5--5--5-5-5--5-5-5-5-5-5--5-5------
g-5--5-5--5-5-5-5--5-5-5-5-5-5-7--7--7-7-7--7-7-7-7-7-7--7-7------
d-5--5-5--5-5-5-5--5-5-5-5-5-5-7--7--7-7-7--7-7-7-7-7-7--7-7------
a-3--3-3--3-3-3-3--3-3-3-3-3-3-5--5--5-5-5--5-5-5-5-5-5--5-5------
e-----------------------------------------------------------------

e-0-0-0-0-0-0-0-0-0-0-0-0-0-0-0-0-0-0-0-0-0-0-0-0-0-0-0-0-0-0-----
b-0-0-0-0-0-0-0-0-0-0-0-0-0-0-0-0-0-0-0-0-0-0-0-0-0-0-0-0-0-0-----
g-9-9-9-9-9-9-9-9-9-9-9-9-9-9-9-9-9-9-9-9-9-9-9-9-9-9-9-9-9-9-----
d-9-9-9-9-9-9-9-9-9-9-9-9-9-9-9-9-9-9-9-9-9-9-9-9-9-9-9-9-9-9-----
a-7-7-7-7-7-7-7-7-7-7-7-7-7-7-7-7-7-7-7-7-7-7-7-7-7-7-7-7-7-7-----
e-----------------------------------------------------------------

gtr 4 (clean)

e-----------------------------------------------------------------
b-----------------------------------------------------------------
g-----------------------------------------------------------------
d----5--4----4-4---4---4h5-5-0----5--4----4-4---4-4h5-5-0---------
a-3--------3-3-3-3---3---------5--5--5--5-5-5-5-5-----------------
e-----------------------------------------------------------------

e-----------------------------------------------------------------
b-----------------------------------------------------------------
g-----------------------------------------------4-----------------
d----5--4----4-4---4h5-4--------5-4----4-4--4h5------0------------
a-7--------7-----7----------7-7------7----------------------------
e-----------------------------------------------------------------

e-----------------------------------------------------------------
b-----------------------------------------------------------------
g-----------------------------------------------------------------
d----5--4----4-4---4---4h5-5-0-----5--4----4-4---4---4h5-5-0------
a-3--------3-----3---3----------5--------5-----5---5--------------
e-----------------------------------------------------------------

e-----------------------------------------------------------------
b-----------------------------------------------------------------
g-14--13--13-14--13-16--16-19--19-19-19-19-21-21-21-21-23-23-24---
d--x---x---x--x---x--x---x--x---x--x--x--x--x--x--x--x--x--x--x---
a-12--11--11-12--11-14--14-17--17-17-17-17-19-19-19-19-21-21-22---
e-----------------------------------------------------------------

Chorus:

e--------3--3-3-3-3-3-3-3-3-3-3---------5--5-5-5-5-5-5-5-5-5-5----
b--------3--3-3-3-3-3-3-3-3-3-3---------5--5-5-5-5-5-5-5-5-5-5----
g-5--5-5-5--5-5-5-5-5-5-5-5-5-5-5/7-7-7-7--7-7-7-7-7-7-7-7-7-7----
d-5--5-5-5--5-5-5-5-5-5-5-5-5-5-5/7-7-7-7--7-7-7-7-7-7-7-7-7-7----
a-3--3-3-3--3-3-3-3-3-3-3-3-3-3-3/5-5-5-5--5-5-5-5-5-5-5-5-5-5----
e-3--3-3-3--3-3-3-3-3-3-3-3-3-3-3/5-5-5-5--5-5-5-5-5-5-5-5-5-5----

e---------0--0-0-0-0--0-0-0-0-0-0--0-0-0-0-0-0-0-0-0-0-0-0-0-0----
b---------0--0-0-0-0--0-0-0-0-0-0--0-0-0-0-0-0-0-0-0-0-0-0-0-0----
g-7-9-9-9-9--9-9-9-9--9-9-9-9-9-9--9-9-9-9-9-9-9-9-9-9-9-9-9-9----
d-7-9-9-9-9--9-9-9-9--9-9-9-9-9-9--9-9-9-9-9-9-9-9-9-9-9-9-9-9----
a-5-7-7-7-7--7-7-7-7--7-7-7-7-7-7--7-7-7-7-7-7-7-7-7-7-7-7-7-7----
e-0---0-0-0--0-0-0-0--0-0-0-0-0-0--0-0-0-0-0-0-0-0-0-0-0-0-0-0----

interlude:

gtr 1.

e-----------------------------------------------------------------
b-----------------------------------------------------------------
g11-12-12---11-121111-12--12-1211---------------------------------
d-x--x--x----x--x-x-x--x---x--x-x---------------------------------
a-9-10-10----9-10-9-9-10--10-10-9---------------------------------
e---------0-----------------------0-0-----------------------------

gtr 2.

e-----------------------------------------------------------------
b-7-8--8-8-x-x-7--7-8--8-8-7-x-x-x-x-x----------------------------
g-7-7--7-7-x-x-7--7-7--7-7-7-x-x-x-x-x----------------------------
d-7-9--9-9-x-x-7--7-9--9-9-7-x-x-x-x-x----------------------------
a-7-7--7-7-x-x-7--7-7--7-7-7-x-x-x-x-x----------------------------
e-----------------------------------------------------------------

outro solo: w/ phaser chorus and delay

e-----------------------------------------------------------------
b-----------------------------------------------------------------
g-------12------------------------------------12------------------
d-12h14-----14-14-14-12-12-14-14-14-14--12-14-----14-12-14-12--14-
a-----------------------------------------------------------------
e-----------------------------------------------------------------

e-----------------------------------------------------------------
b-----------------------------------------------------------------
g--------------------------------------------12-12-12-------------
d-12-12-12-14-14-14-12--12-14-14-12-12-12-14----------14--12-14---
a-----------------------------------------------------------------
e-----------------------------------------------------------------

e-----------------------------------------------------------------
b-----------------------------------------------------------------
g-12--------------------------------------------------------------
d-----14-14-14-12-12-14-14-14-12--14-14-14-12---------------------
a-----------------------------------------------------------------
e-----------------------------------------------------------------

that?s almost all of it, i?m just lazy
trevor jones
            
Tabs too difficult? Try these video lessons and learn fast.




comments powered by Disqus
↑ Back to top | Tablatures and chords are parodies/interpretations of the original songs. You may use it for private study, scholarship, research or language learning purposes only