» » »

Puddle Of Mudd, Away From Me Tabs (ver.3)

Artists:  A B C D E F G H I J K L M N O P Q R S T U V W X Y Z # 

Away From Me Tabs (ver.3)

Puddle Of Mudd Tabs
Rating:
4/5 (6 votes)
Away From Me lessons Tabs too difficult? Try these video lessons and learn fast
                 Puddle of mudd "away from me"

  tuning-C#, F#, B, E, G#, C#
C#----------------------4-4-------------------------------| (second guitar)
F#222222-5/3-5-3-222222--3-3-2-2-222222-5/3-5-3-222222222-|
B --------------------------------------------------------|
E --------------------------------------------------------|  (opening)
G#--------------------------------------------------------|
C#--------------------------------------------------------|

C#------------------------------  (this is the chorus and intro--|
F#---------------------------------------------------------------|
B 6-66-66--------------------------------------------------------|
E 6-66-66-55-5555-2-22-2-22-2222---------------------------------|
G#4-44-44-55-5555-2-22-2-22-2222---------------------------------|
C#--------33-3333-0-00-0-00-0000---------------------------------|

C#---------------------------------|
F#-5---(wait)--5-(wait)---5-7-75\9-|
B 6----(wait)-6--(wait)--4-4-6-----|    (verses)
E ---------------------------------|
G#---------------------------------|
C#---------------------------------|

C#----------------------------------|
F#----------------------------------|
B 6-666-66-99-9999------------------|
E 6-666-66-99-9999-9-999-99-44-4444-|   (interlude part 1)
G#4-444-44-77-7777-9-999-99-44-4444-|
C#-----------------7-777-77-22-2222-|

C#------------------------------------------------------------------|
F#------------------------------------------------------------------|
B ----------------4444444444444444----------------------------------|
E 222222222222222244444444444444444444444444444444777777779999999911(ring)
G#222222222222222222222222222222224444444444444444777777779999999911(ring)
C#0000000000000000----------------222222222222222255555555777777779 (ring)

                            (interlude part 2)
C#------------------            C#------------------------|
F#------------------            F#------------------------|
B 6(ring)-----------   (fill 1) B 6(ring)-----------------|
E 6(ring)-55-2(ring)            E 6(ring)-5(ring)-2-------|(ring)
G#4(ring)-55-2(ring)            G#4(ring)-5(ring)-2-------|(ring)
C#--------33-0(ring)            C#--------3(ring)-0-------|(ring)

\=second time
/=pull

song outline-

opening (x1), intro(x2), verse(x2), chorus(x4), verse(2), chorus(x4), interlude part 1 
interlude part 2 (x1), fill(x2), chorus(x6),
fill 2(x1)
            
Submit corrections

comments powered by Disqus
↑ Back to top | Puddle Of Mudd Tabs for Away From Me. Lyrics for acoustic guitar and electric guitar. Tablatures and chords are parodies/interpretations of the original songs. You may use it for private study, scholarship, research or language learning purposes only