>
 >
Away From Me 1

Away From Me 1 Guitar Tabs

Puddle Of Mudd - Away From Me 1 chords, tabs, tablatures, lyrics

Guitar lessons | Add/correct | Request | Top 50 tabs Artists:  A B C D E F G H I J K L M N O P Q R S T U V W X Y Z 0-9

Away From Me 1 Guitar Tabs – Puddle Of Mudd

CD, Sheet music, Poster

Do you like Away From Me 1? Share with your friends now
Bass TabsChordsTabsTabs v2Tabs v3
PUDDLE OF MUDD-"AWAY FROM ME" GREAT SONG VERY CATCHY---
I AM 100% THAT THIS TAB IS CORRECT I GOT IT RIGHT OUT OF A SONGBOOK!
NOTE: All guitars in double dropped-D tunning(high to low: D1 Ab Db Gb Bb Db)

INTRO
                                    
|----------------------------------|-----------------------------|  
|---0---0---0---0------0-------0---|-----0---0---0-----0-------0-|
|-4---4---4---4---/7-7---75-5---5--|-4-4---4---4---/10---109-9---|
|----------------------------------|-----------------------------|
|----------------------------------|-----------------------------|
|----------------------------------|-----------------------------|
<------------------------------Riff A----------------------------->

 
|---------------------------------|  
|-----0---0---0---0---0-0-0-------| 
|-4-4---4---4---4---4---4b4b------|
|------------------------------0--|
|------------------------------0--|
|------------------------------0--|
                      *

GUITAR TWO DISTORTION

GUITAR TWO REPEATS THE INTRO 
|--------------------------------|-------------------------------|
|--------------------------------|-------------------------------|
|--------------------------------|-------------------------------|
|--------------------------------|-------------------------------|
|-9---9-9-9-9-9-9---3-3--3--3-3--|-0---0-0-0-0-0-0---0-0---0---0-|
|-9---9-9-9-9-9-9---3-3--3--3-3--|-0---0-0-0-0-0-0---0-0---0---0-|


Verse:

GUITAR TWO WITH VERY LIGHT DISTORTION AND DELAY WHEN TOLD
|----------------------|-------|-------------------|------------------|
|----3--------3--------|-------|---3-------3-------|------3---5---5/7-|
|--4---4----4---4--|-(4)-------|-4---4---4---4-----|(4)-2---2---2-----|
|----------------------|-------|-------------------|------------------|
|----------------------|-------|-------------------|------------------|
|----------------------|-------|-------------------|------------------|
             DELAY                     NO DELAY       NO  DELAY         
                                                       

|----------------------|-----------------------|
|----3--------3--------|--------3---5---5---3--|
|--4---4----4---4------|-(4)--2---2---2--------|
|----------------------|-----------------------|
|----------------------|-----------------------|
|----------------------|-----------------------|
   DELAY                             NO DELAY
                        

|----------------------|-----------------------|
|----3--------3--------|--------3---5---5/7----|
|--4---4----4---4------|-(4)--2---2---2--------|
|----------------------|-----------------------|
|----------------------|-----------------------|
|----------------------|-----------------------|
|^     DELAY                  NO DELAY        
|                      
|
|----------------------------------|----------------------------------|
|-0-0-0-0-0-0-0-0----0-0-0-0-0-0-0-|----0-0-0-0-0-0-0-0--0-0-0-0-0-0-0|
|-4-4-4-4-4-4-4-4---4-4-4-4-4-4-4--|---4-4-4-4-4-4-4-4-4-4-4-4-4-4-4--|
|----------------------------------|----------------------------------|
|----------------------------------|----------------------------------|
|----------------------------------|----------------------------------|


CHORUS GUITAR ONE                               PLAY 4 TIMES
|--------------------------------|--------------------------------|
|--------------------------------|--------------------------------|
|--------------------------------|--------------------------------|
|-4--4-4-4-4-4-4-----------------|--------------------------------|
|-2--2-2-2-2-2-2---3-3-3-3-3-3-3-|-0--0-0-0-0-0-0---0-0-0-0-0-0-0-|
|------------------3-3-3-3-3-3-3-|-0--0-0-0-0-0-0---0-0-0-0-0-0-0-|
|
|
|GUITAR TWO 
|--------------------------------|--------------------------------|
|--------------------------------|--------------------------------|
|--------------------------------|--------------------------------|
|--------------------------------|--------------------------------|
|-9--9-9-9-9-9-9---3-3-3-3-3-3-3-|-0--0-0-0-0-0-0---0-0-0-0-0-0-0-|
|-9--9-9-9-9-9-9---3-3-3-3-3-3-3-|-0--0-0-0-0-0-0---0-0-0-0-0-0-0-|


BRIDGE GUITAR ONE:  (REPEAT FIRST MEASURE ONCE)
|-----------------------|-----------------------|--------------------------|
|-----------------------|-----------------------|--------------------------|
|-----------------------|-----------------------|--------------------------|
|-4-4--4-4--4/7-7--7--7-|-----------------------|-------------9-9--9-9-9-9-|
|-2-2--2-2--2/5-5--5--5-|-7-7--7-7--7-2-2--2--2-|-7-7--7-7--7-7-7--7-7-7-7-|
|-----------------------|-7-7--7-7--7-2-2--2--2-|-7-7--7-7--7--------------|

GUITAR TWO (REPEAT FIRST MEASURE ONCE)
|-------------------------|------------------|--------------------------|
|-------------------------|------------------|--------------------------|
|-------------------------|------------------|--------------------------|
|-------------------------|------------------|--------------------------|
|-9999999-12121212121212-9|-777777--222222-0-|-7777777-14141414141414-12|
|-9999999-12121212121212-9|-777777--222222-0-|-7777777-14141414141414-12|

GUITAR THREE WITH DISTORTION ONLY THE SECOND TIME
|---------------------|----------------|----------------|-------------------
|---------------------|----------------|----------------|-------------------
|-8------7------------|-6-----4--------|-8------9-------|-9-6-7-6-4-4-------
|-X------X------------|-X-----X--------|-X------X-------|-x-x-x-x-x-x-------
|-6------5------------|-4-----2--------|-6------7-------|-7-4-5-4-2-2-------
|---------------------|----------------|----------------|-------------------
JUST KEEP PLAYING THIS AND EVENTUALLY YOU WILL GET IT! THANX-ENJOY!





Comments


Popular Puddle Of Mudd tabs & chords
She ***Ing Hates Me Bass Tabs
Drift And Die Chords
Drift And Die (Intro Ver 2) Tabs
Drift And Die 7 Tabs
Psycho 1 Tabs
She Hates Me 2 Tabs
She Hates Me 7 Tabs
She In Hates Me Tabs
Sydney Tabs
Psycho Ukulele


Song lyrics



↑ Back to top | Tablatures and chords are parodies/interpretations of the original songs. You may use it for private study, scholarship, research or language learning purposes only
© 2014 AZChords.com Contact us | Privacy policy | DMCA | Add/correct tabs | Request tabs | Top 50 tabs