» » »

This Is Not A Love Song Tabs (ver.1)

Artists:  A B C D E F G H I J K L M N O P Q R S T U V W X Y Z # 

This Is Not A Love Song Tabs (ver.1)

Public Image Ltd
Rating:
5/5 (3 votes)

Hard to play? Try these video lessons and learn fast.
                

The verse to this song is bass only, however if you want to play a transcribed version on guitar the tab is as follows

e ----------------|
B ----------------|
G ----------------|
D ----------------| repeat this note throughout the verse if you wish
A ----------------|
E 0-0-0-0-0-0-0-0-|

=============================================================================
=============================================================================

Intro

e ------|
B ------|
G ------|
D ------|
A ------|
E 12/0--|

e --------------|
B --------------|
G --------------|
D ----------5/7-| play this 4 times
A 5/8--5/7------|
E --------------|

Chorus 1

e --------------|
B --------------|
G --------------|
D ----------5/7-| play this 6 times
A 5/8--5/7------|
E --------------|

e ---------|
B ---------|
G ---------|
D ---------|
A 5*-5/7/0-|
E ---------|

Chorus 2

e --------------|
B --------------|
G --------------|
D ----------5/7-| play this 3 times
A 5/8--5/7------|
E --------------|

e --------------|
B --------------|
G --------------|
D --------------|
A 5/8--5/7------|
E ----------3/5-|

e --------------|
B --------------|
G --------------|
D ----------5/7-| play this 3 times
A 5/8--5/7------|
E --------------|

e --------------|
B --------------|
G --------------|
D --------------|
A 5/8--5/7------|
E ----------3/5-|

Chorus 3

e --------------|
B --------------|
G --------------|
D ----------5/7-| play this 3 times
A 5/8--5/7------|
E --------------|

e --------------|
B --------------|
G --------------|
D --------------|
A 5/8--5/7------|
E ----------3/5-|

e --------------|
B --------------|
G --------------|
D ----------5/7-| play this 3 times
A 5/8--5/7------|
E --------------|

e -----|
B -----|
G -----|
D -----|
A 7v**-|
E -----|

Chorus 4

e --------------|
G ---------8/10-|
B 7/10-7/9------|
D --------------| play this 3 times
A --------------|
E --------------|

e --------------|
G --------------|
B 7/10-7/9------|
D ---------5/7--|
A --------------|
E --------------|

Solo

e --------------|
G ---------8/10-|
B 7/10-7/9------|
D --------------| play this twice
A --------------|
E --------------|

e -----------------|
G ---------8/b10**-|
B 7/10-7/9---------|
D -----------------|
A -----------------|
E -----------------|

e -------|
B -------|
G 8/10v*-|
D -------|
A -------|
E -------|

Outro

e --------------|
B --------------|
G --------------|
D ----------5/7-| play this 3 times
A 5/8--5/7------|
E --------------|

e --------------|
B --------------|
G --------------|
D --------------|
A 5/8--5/7------|
E ----------3/5-|

e --------------|
B --------------|
G --------------|
D ----------5/7-| play this 3 times
A 5/8--5/7------|
E --------------|

e --------------|
B --------------|
G --------------|
D --------------|
A 5/8--5/7------|
E ----------3/5-|

e ----|
B ----|
G 9br-|
D ----|
A ----|
E ----|

br = bend then release
b = bend
* = hold note
v = vibrato
/ = slide
            
Hard to play? Try these video lessons and learn fast. | Correct




comments powered by Disqus
↑ Back to top | Tablatures and chords are parodies/interpretations of the original songs. You may use it for private study, scholarship, research or language learning purposes only