» » »

Theme Bass tabs (ver.1)

Artists:  A B C D E F G H I J K L M N O P Q R S T U V W X Y Z # 

Theme Bass tabs (ver.1)

Public Image Ltd
Rating:
5/5 (1 vote)

Hard to play? Try these video lessons and learn fast.
                PUBLIC IMAGE LIMTED
THEME - FIRST ISSUE, 1978

JAH WOBBLE...

FIRST
E ---0-7--9-11---------9--|
A ---------------9--7-----|
D ------------------------|
G ------------------------|

SECOND
E ------------------------|
A ---0-7--9-11---------9--|
D ---------------9--7-----|
G ------------------------|

THIRD
E ------------------------|
A ---0-7----11-9-7-----9--|
D -----------------9-7----|
G ------------------------|


THEME GOING ON AND ON AND ON ...
            
Hard to play? Try these video lessons and learn fast. | Correct




comments powered by Disqus
↑ Back to top | Tablatures and chords are parodies/interpretations of the original songs. You may use it for private study, scholarship, research or language learning purposes only