» » »

Swan Lake Bass tabs (ver.1)

Artists:  A B C D E F G H I J K L M N O P Q R S T U V W X Y Z # 

Swan Lake Bass tabs (ver.1)

Public Image Ltd
Rating:
5/5 (3 votes)

Hard to play? Try these video lessons and learn fast.
                Band: Public Image Ltd
Bassist: Jah Wobble (John Wardle)

This is a tab I just did because there was none out there, I might do the whole song in 
pro if I can figure out all the guitars.

.=short note

Intro:

G|-------------------------------------------------------------------------|
D|---------------------7-8-9-10--------------------------------------------|
A|------------7-8-9--------------------------------------------------------|
E|-------------------------------------------------------------------------|

Main Line:

G|-------------------------------------------------------------------------|
D|-------------------------------------------------------------------------|
A|----------2.---------------------2.--------------------------------------|
E|--0--0-0-----0-3.---2----0--0-0-----0--3---------------------------------|

with slides on the last note a couple of times, you'll just have to listen for it

Variation:

G|-------------------------------------------------------------------------|
D|-------------------------------------------------------------------------|
A|----7.---8.---9.---10.---------------------------------------------------|
E|--0----0----0----0-------------------------------------------------------|

this is also something you'll have to listen for




for those who want to play the guitar as well

Guitar chorus:
E|--7---------------5-7------7-------7-------------------------------------|
B|---------5--7--8---------8-------8--------8--7--8--5---------------------|
G|-------------------------------------------------------------------------|
D|-------------------------------------------------------------------------|
A|-------------------------------------------------------------------------|
E|-------------------------------------------------------------------------|
            
Hard to play? Try these video lessons and learn fast. | Correct




comments powered by Disqus
↑ Back to top | Tablatures and chords are parodies/interpretations of the original songs. You may use it for private study, scholarship, research or language learning purposes only