» » »

Public Image Ltd, Radio Bass tabs (ver.1)

Artists:  A B C D E F G H I J K L M N O P Q R S T U V W X Y Z # 

Radio Bass tabs (ver.1)

Public Image Ltd Tabs
Rating:
5/5 (1 vote)
Radio lessons Tabs too difficult? Try these video lessons and learn fast
                "(4)
PUBLIC IMAGE LIMITED - RADIO 4
BASSIST: JAH WOBBLE IS GOD

INTRO/OUTRO                     *(5-5-5) DELAY

E --5-------5-(5-5-5)*--5-------5-5-----|
A ----4-5-6---------------4-5-6---------|
D --------------------------------------|
G --------------------------------------|

VERSE

E -------------------------------------------------|
A -------5-(5-5-5)--4-5-6-7---------5--6---6-------|
D --7--4-----------------------7--4------7---7-----|
G -------------------------------------------------|

E -------------------------------------------------|
A -------5-(5-5-5)--4-5-6-7---------5---5---5------|
D --7--4-----------------------7--4-------7---7----|
G -------------------------------------------------|

E ------------------------------------------------------|
A -------5-(5-5-5)--4-5-6-7---------5-(5-5-5)-----------|
D --7--4-----------------------7--4----------4-5-6-7----|
G ------------------------------------------------------|

E ------------------------------------------4-5----5-0--|
A -------5-(5-5-5)--4-5-6-7---------5-(5-5-5)----7------|
D --7--4-----------------------7--4---------------------|
G ------------------------------------------------------|

E -------------------------------------------------------|
A -------5-(5-5-5)--4-5-6-7---------5-(5-5-5)------------|
D --7--4-----------------------7--4----------------------|
G -------------------------------------------------------|

INTRO

E --5-------5-(5-5-5)*--5-------5-(5-5-5)---|
A ----4-5-6---------------4-5-6-------------|
D ------------------------------------------|
G ------------------------------------------|

PLAY THIS WITH DELAY
FANTASTIC SONG

JAH WOBBLE IS GOD!
"            

comments powered by Disqus
↑ Back to top | Public Image Ltd Bass for Radio. Lyrics for acoustic guitar and electric guitar. Tablatures and chords are parodies/interpretations of the original songs. You may use it for private study, scholarship, research or language learning purposes only