» » »

Public Image Ltd, Poptones Bass tabs (ver.1)

Artists:  A B C D E F G H I J K L M N O P Q R S T U V W X Y Z # 

Poptones Bass tabs (ver.1)

Public Image Ltd Tabs
 Rating:
4.4/5 (7 votes)
Poptones lessons Tabs too difficult? Try these video lessons and learn fast
                ----------------------------------------------------------------------------
----------------------------------------------------------------------------


Tuning: standard

G|---------------9-9-9-9---------------------------------------------------|
D|-------7-7-7-7-----------------------------------------------------------|
A|-----------------------7-7-7-7-------------------------------------------|
E|-5-5-5-------------------------0-----------------------------------------|

do this four times (except right at the beginning) then...

G|-------------------------------------------------------------------------|
D|-------9-9-9-9-10-10-10-9-9-8-8-7-7--------------------------------------|
A|-------------------------------------------------------------------------|
E|-7-7-7------------------------------0------------------------------------|

G|-------------------------------------------------------------------------|
D|-------9-9-9-9-10---9---8---7--------------------------------------------|
A|-------------------------------------------------------------------------|
E|-7-7-7------------8---7---6---5-0----------------------------------------|

Now repeat the whole thing over and over. Classic Wobble bassline!

============================================================================
            
Submit corrections

comments powered by Disqus
↑ Back to top | Public Image Ltd Bass for Poptones. Lyrics for acoustic guitar and electric guitar. Tablatures and chords are parodies/interpretations of the original songs. You may use it for private study, scholarship, research or language learning purposes only