» » »

Low Life Bass tabs (ver.1)

Artists:  A B C D E F G H I J K L M N O P Q R S T U V W X Y Z # 

Low Life Bass tabs (ver.1)

Public Image Ltd
Rating:
0/5 (0 votes)

Hard to play? Try these video lessons and learn fast.
                PUBLIC IMAGE LIMITED
LOW LIFE (FIRST ISSUE, 1978)
BASSIST: JAH WOBBLE

INTRO/CHORUS
E --1--1--1--1--1--1--1--1---------------------------------|
A ---------------------------------------------------------|
D --------------------------3--3--3--3--3--3---------------|
G ---------------------------------------------------------|

E --1--1--1--1--1--1--1--1---------------------------------|
A ---------------------------------------------------------|
D --------------------------5--5--5--5--5--5---------------|
G ---------------------------------------------------------|

VERSE
E --6--6--6--6--6--6--6------------------------------------|
A ---------------------------------------------------------|
D ----------------------8--8--8--8--8--8-------------------|
G ---------------------------------------------------------|

E --6--6--6--6--6--6--6------------------------------------|
A ---------------------------------------------------------|
D ----------------------5--5--5--5--5--5-------------------|
G ---------------------------------------------------------|

E --6--6--6--6--6--6--6------------------------------------|
A ---------------------------------------------------------|
D ----------------------8--8--8--8--8--8-------------------|
G ---------------------------------------------------------|

E --6--6--6--6--6--6--6------------------------------------|
A ------------------------5--3--1--1-----------------------|
D ---------------------------------------------------------|
G ---------------------------------------------------------|

JAH WOBBLE IS GOD
PiL RULES!
            
Hard to play? Try these video lessons and learn fast. | Correct




comments powered by Disqus
↑ Back to top | Tablatures and chords are parodies/interpretations of the original songs. You may use it for private study, scholarship, research or language learning purposes only