» » »

Home Is Where The Heart Is Bass tabs (ver.1)

Artists:  A B C D E F G H I J K L M N O P Q R S T U V W X Y Z # 

Home Is Where The Heart Is Bass tabs (ver.1)

Public Image Ltd
Rating:
0/5 (0 votes)
Tabs too difficult? Try these video lessons and learn fast.
                PUBLIC IMAGE LIMITED
HOME IS WHERE THE HEART IS (FLOWERS OF ROMANCE, 1981)

JAH WOBBLE...

E ---0-77--55--33------------|
A ----------------5----15/13-|
D ---------------------------|
G ---------------------------|

E ----77---55--33------------|
A ----------------5----------|
D ---------------------------|
G ---------------------------|

AND MORE, MORE, MORE, MORE

ANNOY YOURSELF WITH PIL MUSIC (JAH WOBBLE IS GOD)
            
Tabs too difficult? Try these video lessons and learn fast.


comments powered by Disqus
↑ Back to top | Tablatures and chords are parodies/interpretations of the original songs. You may use it for private study, scholarship, research or language learning purposes only