» » »

Fodderstompf Bass tabs (ver.1)

Artists:  A B C D E F G H I J K L M N O P Q R S T U V W X Y Z # 

Fodderstompf Bass tabs (ver.1)

Public Image Ltd
Rating:
0/5 (0 votes)

Hard to play? Try these video lessons and learn fast.
                PUBLIC IMAGE LTD
FODDERSTOMPF - FIRST ISSUE, 1978
Bassist: Jah Wobble

Intro
E ------9-9-------------------

Principal Riff
E -----0-999-888-77---12-14---------------999-888-77------12*---|
A --------------------------------------------------------------|
D --------------------------------------------------------------|
G --------------------------------------------------------------|

Some Variations
E -----0-999-888-77---12-14---------------999-888-77-------14--|
A -------------------------------------------------------------|
D -------------------------------------------------------------|
G -------------------------------------------------------------|

E -----0-999-888-77---12-14---------------999-888-77------14-12--|
A ---------------------------------------------------------------|
D ---------------------------------------------------------------|
G ---------------------------------------------------------------|

Be in love!
We only wanted to be looooove!
            
Hard to play? Try these video lessons and learn fast. | Correct




comments powered by Disqus
↑ Back to top | Tablatures and chords are parodies/interpretations of the original songs. You may use it for private study, scholarship, research or language learning purposes only