» » »

Public Image Ltd, Death Disco Bass tabs (ver.1)

Artists:  A B C D E F G H I J K L M N O P Q R S T U V W X Y Z # 

Death Disco Bass tabs (ver.1)

Public Image Ltd Tabs
 Rating:
4.4/5 (7 votes)
Death Disco lessons Tabs too difficult? Try these video lessons and learn fast
                Another pretty simple, but extremely fun PiL bass line.

Intro:

G|-7-8-9--9-10-11--12-|
D|--------------------|
A|--------------------|
E|--------------------|

Main Riff:

G|-------------------------|
D|-------------------------|
A|-----2------------2------|
E|00-0---33--1--0-0---33---|

Sometimes there's a slide at the end:

G|-------------------------|
D|-------------------------|(5/9)
A|-----2-----------2--or---|
E|00-0---33--1--0-0--------|(1/6)

And once in a while there's a one-measure octave run:

G|-5-6-7-8-|
D|---------|
A|3-4-5-6--|
E|---------|

Structure:

Intro
Main Riff x22
Octaves   x1
Main Riff x14
Octaves   x1
Main Riff x11
Octaves	  x1
Main Riff x9
Octaves   x1
Main Riff x6 (fadeout)

There are LOTS of slides at irregular intervals, so I'm not going to tell you when every 
occurs. Just throw them in at logical spots, or whenever you feel like it.
            
Submit corrections

comments powered by Disqus
↑ Back to top | Public Image Ltd Bass for Death Disco. Lyrics for acoustic guitar and electric guitar. Tablatures and chords are parodies/interpretations of the original songs. You may use it for private study, scholarship, research or language learning purposes only