» » »

Public Image Ltd, Careering Bass tabs (ver.1)

Artists:  A B C D E F G H I J K L M N O P Q R S T U V W X Y Z # 

Careering Bass tabs (ver.1)

Public Image Ltd Tabs
Rating:
4/5 (3 votes)
Careering lessons Tabs too difficult? Try these video lessons and learn fast
                Honestly, I think this bass line is kind of cheesy, but whatever. As usual, Wobble 
in some random variations, but this version sounds fine with the recording.


   1   2 & 3 & 4 & 1 & 2 & 3 & 4 & 1 & 2 & 3 & 4 & 1 & 2 & 3 & 4 &
G|-----------------------------------------------------------------|
D|-----------------------------------------------------------------|
A|-------------------------------------2-2-2-2-2-2-5-5-4-4-2-2-----|
E|-3---3-3-3-3-3-0-0-0-5-5-5-5-5-0-0-0-------------------------5-5-|

Riff 2:

   1   2 & 3 & 4 & 1 & 2 & 3 & 4 & 1 & 2 & 3 & 4 & 1 & 2 & 3 & 4 &
G|-----------------------------------------------------------------|
D|-----------------------------------------------------------------|
A|-------------------------------------2-2-2-2-2-2-----2-2-4-4-5-5-|
E|-3---3-3-3-3-3-0-0-0-5-5-5-5-5-0-0-0-------------5-5-------------|


Riff 3:

   1   2 & 3 & 4 & 1 & 2 & 3 & 4 & 1 & 2 & 3 & 4 & 1 & 2 & 3 & 4 &
G|-----------------------------------------------------------------|
D|-----------------------------------------------------------------|
A|-------------------------------------2-2-2-2-2-2-----------------|
E|-3---3-3-3-3-3-0-0-0-5-5-5-5-5-0-0-0-------------0-0-0-0-0-0-0-0-|

Riff 4:

   1   2 & 3 & 4 & 1 & 2 & 3 & 4 & 1 & 2 & 3 & 4 & 1 & 2 & 3 & 4 &
G|-----------------------------------------------------------------|
D|-----------------------------------------------------------------|
A|-------------------------------------------------5-5-4---2-3-5-7-|
E|-3---3-3-3-3-3-0-5-5-5-5-5-5-5-0-0-0-0-0-0-0-0-0-----------------|

Riff 5:

   1   2 & 3 & 4 & 1 & 2 & 3 & 4 & 1 & 2 & 3 & 4 & 1 & 2 & 3 & 4 & 1  2 & 3
G|--------------------------------------------------------------------------|
D|---------------------------------------------------------5----------------|
A|-------------------------------------2-2-2-2-2-2-5-5----------------------|
E|-3---3-3-3-3-3-0-0-0-5-5-5-5-5-0-0-0---------------------------0-3--3-3-3-|


Structure:

Riff 1,2 x11
Riff 2   x3
Riff 1   x1
Riff 2   x2
Riff 1,2 x2
Riff 3   x1
Riff 4   x1
Riff 5   x1
            
Submit corrections

comments powered by Disqus
↑ Back to top | Public Image Ltd Bass for Careering. Lyrics for acoustic guitar and electric guitar. Tablatures and chords are parodies/interpretations of the original songs. You may use it for private study, scholarship, research or language learning purposes only