» » »

Bad Night Bass tabs (ver.1)

Artists:  A B C D E F G H I J K L M N O P Q R S T U V W X Y Z # 

Bad Night Bass tabs (ver.1)

Public Image Ltd
Rating:
0/5 (0 votes)

Hard to play? Try these video lessons and learn fast.
                PiL - PUBLIC IMAGE LIMITED - BAD NIGHT (a prototype of THIS IS NOT A LOVE SONG)
BASSIST: JAH WOBBLE

VERSE

E --0-0--0--0-0-0-0-0-3-(3)-4-(4)-5-(5-5)---------------5-5-5-5-----|
A -----------------------------------------0-0--2-2-2-2-------------|
D ------------------------------------------------------------------|
G ------------------------------------------------------------------|

VARIATIONS

E --0-0--0--0-0-0-0-0-3-4-5----------3-2-0------------|
A ---------------------------2-2--0-------------------|
D ----------------------------------------------------|
G ----------------------------------------------------|

VARIATIONS

E --0-0----------------5-5--3-3-3-----------3-2-0-----|
A ------5-5--3-3--2-2-------------(0)-2-2-0-----------|
D ----------------------------------------------------|
G ----------------------------------------------------|

GREAT SONG
GREAT BAND

JAH WOBBLE IS GOD!!!
            
Hard to play? Try these video lessons and learn fast. | Correct




comments powered by Disqus
↑ Back to top | Tablatures and chords are parodies/interpretations of the original songs. You may use it for private study, scholarship, research or language learning purposes only