» » »

Public Image Ltd, Bad Life Bass tabs (ver.1)

Artists:  A B C D E F G H I J K L M N O P Q R S T U V W X Y Z # 

Bad Life Bass tabs (ver.1)

Public Image Ltd Tabs
Rating:
5/5 (2 votes)
Bad Life lessons Tabs too difficult? Try these video lessons and learn fast
                PUBLIC IMAGE LIMITED - BAD LIFE
BASSIST: LOUIS BERNARDI


Riff 1

G|--------------------------|
D|--------------------------|
A|--------------------------|
E|-0-2-2-0-2--0-2-2-0-2--0~~|x2

Riff 2

G|----------------|
D|----------------|
A|-------------0--|
E|-0-2-0-2-0-2----|x4

Riff 1

Riff 2

Riff 3

G|-----------------------------------------------------|
D|-----------------------------------------------------|
A|-----------------------------------------------------|
E|-0-2-2-0-2--0-2-2-0-2--0~~0-2-2-0-2--0-2-2-0-2--0-0--|

G|------------------------------------------------------|
D|-----------------------2-2----------------------------|
A|------------------------------------------------------|
E|-0-2-2-0-2--0-2-2-0-2-------0-2-2-0-2--0-2-2-0-2--0~~-|

G|--------------------------------------------------|
D|--------------------------------------------------|
A|--------------------------------------------------|
E|-0-2-2-0-2--0-2-2-0-2--0-2-2-0-2--0-2-2-0-2---0~~-|

G|---------------------------------------------|
D|---------------------------------------------|
A|---------------------------------------------|
E|-0-2-2-0-2--0-2-2-0-2--0-2-2-0-2--0-2-2-0-2--|

Riff 2

Riff 1

Riff 4

G|-----------------|
D|-2-2-------------|
A|-----------------|
E|-----0-2-0-2--0~~|

Riff 2

Riff 1

Riff 2

Riff 5

G|---------------------------------------------------------|
D|------------------------------------2-2-2~~--------------|
A|---------------------------------------------------------|
E|-0-2-2-0-2--0-2-2-0-2--0~~0-2-2-0-2--------0-2-2-0-2--0~~|

Riff 2

Riff 1

Riff 2

Riff 6

G|------------|
D|------------|
A|------------|
E|-0-2-2-0-2--|x4

Riff 1

Riff 7

G|---------------------------------------------------|
D|---------------------------------------------------|
A|-------------0-------------------------------------|
E|-0-2-0-2-0-2---0-2-2-0-2--0-2-2-0-2--0~~0-2-2-0-2--|

Riff 8

G|-------------------------------------------------------|
D|-------------------------------------------------------|
A|------------------------0-------------0-------------0--|
E|-0-2-2-0-2--0-2-0-2-0-2---0-2-0-2-0-2---0-2-0-2-0-2----|

G|------------------|
D|------------------|
A|-5-3-1---5-3-1----|
E|-------3-------3--|

Outro to Fade out

G ---------------------------|
D ---------------------------|
A ---------------------------|
E -0-2-2-0-2--0-2-2-0-2--0~~-|x3

G ----------------------------|
D -----------------------2-2--|
A ----------------------------|
E -0-2-2-0-2--0-2-2-0-2-------|

G ---------------------------|
D ---------------------------|
A ---------------------------|
E -0-2-2-0-2--0-2-2-0-2--0~~-|


JAH WOBBLE IS GOD!
            
Submit corrections

comments powered by Disqus
↑ Back to top | Public Image Ltd Bass for Bad Life. Lyrics for acoustic guitar and electric guitar. Tablatures and chords are parodies/interpretations of the original songs. You may use it for private study, scholarship, research or language learning purposes only