» » »

Psycroptic, Psycrology Tabs (ver.1)

Artists:  A B C D E F G H I J K L M N O P Q R S T U V W X Y Z # 

Psycrology Tabs (ver.1)

Psycroptic Tabs
Rating:
5/5 (2 votes)
Psycrology lessons Tabs too difficult? Try these video lessons and learn fast
                Psycroptic - 'Psycrology'
The Scepter Of The Ancients (2003)
Unique Leader Records


____________________________________________________________________________
____________________________________________________________________________
Dropped D Tuning


 Intro:
  Gtr.1                                                                (x3)
||-------------------------------------------------------------------------|
||-----------------------------------------------------------------------.-|
||--2-4-5-4-----2-4-5-4---------5-4-----2-4-5-4----------------------------|
||----------2-----------------------2------------------------------------.-|
||--0-------0---------------0-2-----0--------------------------------------|
||-------------------------------------------------------------------------|
||                                                                         ||
|| Gtr.2 (Dist.)                                                           ||
||------------------------------------------------------------------------||
||-----------------------------------------------------------------------.-|
||-------------------------------------------------------------------------|
||-----------------------------------------------------------------------.-|
||----------------------0-3-2-------------------0-3-0----2-3-8-------------|
||----------------------0-3-2-------------------0-3-0----2-3-8-------------|
||                                                                         ||
|| Gtr.3 (2nd, 3rd Time Only)                                              ||
||-------------------------------------------------------------------------|
||-----------------------------------------------------------------------.-|
||-------------------------------------------------------------------------|
||------2-----------2-----------2-----------2----------------------------.-|
||----0---0-------0---0-------0---0-------0---0----------------------------|
||--2-------2---2-----------2-------2---2----------------------------------|


 Riff A (x4)                _______________________   ____________
   Gtr. 1 (Dist.)          |                   1,3 | |        2,4 |
||-----------------------|-------------------------|--------------||
||-----------------------|-----------------------.-|------------.-||
||-----------------------|-------------------------|--------------||
||-----------------------|-------------------594-.-|------------.-||
||--7-7-----8-7---10-----|-------------------372---|-3---0-2-3----||
||--7-7-777----10---10-7-|-333333777777222222------|-3---0-2-5----||


 Riff B (x2)
  Gtr. 1
||------------------------------------------------------------||
||------------------------------------------------------------||
||------------------------------------------------------------||
||------------6-7-4-----6----------------------------87----7--||
||-0--------58--5-2------852---3-6-------3-55555565-5--58735--||
||-0-000-030--------000-----30-3-6-0000005--------------------||


 Riff C (x2)
  Gtr. 1
|----------------------------------------------------------------------------|
|----------------------------------------------------------------------------|
|----------------------------------------------------------------------------|
|----------------------------------------------------------------------------|
|-----------66--55-3p2-2-543-6p3-2-654-----------77----9h10p9--5-9653--32----|
|-5555559933--55-----6--543----5--654-5555559933--9999------10------65--5432-|


 Fill 1
  Gtr.1
||-----|
||-----|
||-----| Then Riff B x2 (without first note)
||-----|
||-0-3-|
||-0-5-|


 Riff D (x3)
  Gtr.1
||-------------------------------------------------||
||-----------------------------------------------.-||
||-------------------------------------------------||
||-----------------------------------5--5\4------.-||
||-3-6-2-543-6-5-2-654-9h10p9--5-956-3--3\2--------||
||---6---543---5---654-------10-------65---654-----||


 Riff E (x1) Slower
  Gtr.1
||----------------------------------------------------||
||----------------------------------------------------||
||----------------------------------------------------||
||-----------8\5---------12\11---------5----4---------||
||-3-6-2-543-6\3---2-654-10\9-10-5-956-3-65-2-654-0---||
||---6---543-----5---654------10---------65---654-0---||


 Fill 2
    Gtr 1.
||-------------------------------||
||-------------------------------||
||--2-4-5-4---5p4----------------||
||----------2--------------------||
||--0-------0--------------------||
||-------------------------------||
||                               ||
|| Gtr.2                         ||
||-------------------------------||
||-------------------------------||
||-------------------------------||
||-------------------------------||
||----------------0-3-0----2-3-8-||
||----------------0-3-0----2-3-8-||


 Intro Riff 2x (Without Gtr. 1)


 Riff F
   Gtr.1
||------------------------------------------------------------------|
||------------------------------------------------------------------|
||------------------------------------------------------------------|
||------------------------------------------------------------------|
||----3332223-6--------5555----4444-3h6-2-------333222---6p3-3p2----|
||-0h2------3-6--0262------0000----------3--0h2-------333---5---654-|

 Riff F (cont.)
  Gtr.1              (2x)
||--------------------||
||-------------------.||
||--------------------||
||--------------5----.||
||-555588774444--63---||
||-----------------3--||


 Riff G
  Gtr.1                               (4x)
||--------------------------------------||
||--------------------------------------||
||--------------------------------------||
||-----------------------------------5--||
||---5--8--4-7-3h6p3----5--8--4-7-3h6-6-||
||-00-00-00-0-------5-00-00-00-0--------||


 Riff H
  Gtr.1                                 (1x)
||-----------------------------------------||
||-----------------------------------------||
||-----------------------------------------||
||-----------------------------------5-----||
||-3-6-2-543-6-5-2-654-9h10p9--5-956-3---6-||
||---6---543---5---654-------10----------6-||


 Riff I
  Gtr.1
|----------------------------------------------------------------------------|
|----------------------------------------------------------------------------|
|----------------------------------------------------------------------------|
|-----------------------------------------------------5----------------------|
|----------666---555-3p2-2----6p3-2-----------665p3--9h10p9--5-956-3--3\2654-|
|-555999333---555----6-543----5-654-5555559933-------------10-------65---654-|

 Fill 3
  Gtr.1
||-----------------------------||
||-----------------------------||
||-----------------------------||
||-----------------------------||
||-------2-------3-------6/7\6-||
||-2-3-5---5-3-2---2-5-3-6/7\6-||


 Riff J
  Gtr.1
||--------------------------------------------------------------||
||--------------------------------------------------------------||
||--------------------------------------------------------------||
||--------------------------------------------------------------||
||-------2-------3-------6/7\6--3\2-------2-------3-------6/7\6-||
||-2-3-5---5-3-2---2-5-3-6/7\6--3\2-2-3-5---5-3-2---2-5-3-6/7\6-||

 Riff J (cont.)
  Gtr.1                                               (2x)
||------------------------------------------------------||
||------------------------------------------------------||
||-------------------------------2p1----1---------------||
||----------------------------------2p1-----3p2---------||
||-------2-------3-------6/7\6---------3-3p2---3p2------||
||-2-3-5---5-3-2---2-5-3-6/7\6--------------------3-2-1-||


 Riff K
  Gtr.1                                       (2x)
||-----------------------------------------------||
||-----------------------------------------------||
||-----------------------------------------------||
||-----------------------------------------------||
||-00-00--3--2------88-----------00-00---0---0---||
||-00-00---32-323-77--9910101212-00-00---0---0---||


 Riff K1
  Gtr.1                                                                   (2x)
|----------------------------------------------------------------------------|
|----------------------------------------------------------------------------|
|----------------------------------------------------------------------------|
|----------------------------------------------------------------------------|
|00-00--3--2------88-------00-00---0---0--0--0-3--2-3\22\1-5555222288883333--|
|00-00---32-323-77--9910101212-00-00---0---0--0--0--32--3\22\1---------------|

 Riff K1 (cont.)
  Gtr.1
||-------|
||-------|
||-------|
||-------|
||-00-00-|
||-00-00-|


 Fill 4      Riff L
  Gtr.1       Gtr.1                              (4x)
||---------|-----------------------------------------||
||---------|.---------------------------------------.||
||---------|-----------------------------------------||
||---------|.----------------------------7-----5----.||
||---------|-6-3-5----6-3-5----10-6-9------6-3---6-3-||
||-00-00-00|------0000-----0000------0000------------||

 Riff M
  Gtr.1
||--------|------------------------------------------||
||--------|------------------------------------------||
||--------|------------------------------------------||
||--------|---------------676------------------------||
||-6p5----|--------------2------------------------2--||
||-----0h1|-111-111-0h1h3------111-111-111-4~--014-1-||
                                            ah
 Riff M (cont.)
  Gtr.1
||----|-------------------------------------------||
||----|-------------------------------------------||
||----|-------------------------------------------||
||-0h1|---------------6767------------------------||
||-0h1|--------------2------------------------2---||
||-0h1|-111-111-0h1h3------111-111-111-4~--014-10-|| (1-0, not 10)
                                        ah

 Riff L 2x


 Riff M 2x


 Riff J 2x

 Riff N
  Gtr.1                                        (2x)
||-------------------------------------------------||
||-------------------------------------------------||
||----------------------------2p1----1-------------||  * 2nd Time Finish
||---------3-----------*-----2---2p1-----3p2-------||
||-----2-----2-00-3\20-3\2--2-------3-3p2---3p2----||
||-0-0---0-----00-3\20-3\2-3-------------------321-||


 Fill 2


 Intro Riff 2x (With Gtr.1)


 Riff C 2x
            

comments powered by Disqus
↑ Back to top | Psycroptic Tabs for Psycrology. Lyrics for acoustic guitar and electric guitar. Tablatures and chords are parodies/interpretations of the original songs. You may use it for private study, scholarship, research or language learning purposes only