>
 >
Creulty Incarnate

Creulty Incarnate Guitar Tabs

Psycroptic - Creulty Incarnate chords, tabs, tablatures, lyrics

Guitar lessons | Add/correct | Request | Top 50 tabs Artists:  A B C D E F G H I J K L M N O P Q R S T U V W X Y Z 0-9

Creulty Incarnate Guitar Tabs – Psycroptic

CD, Sheet music, Poster

Do you like Creulty Incarnate? Share with your friends now
Tabs
Psycroptic - 'Creulty Incarnate'
The Scepter Of The Ancients (2003)
Unique Leader Records



Dropped D Tuning


 Riff A
   Gtr. 1                                                                 (2x)
||----------------------------------------------------------|----------------|
||----------------------------------------------------------|----------------|
||---------------597------5---------------------------------|----------------|
||---------54/587----------4-7--5--8-7---------54/58574~----|-------------*--|
||-------5-----------------6-633--6-5--------5---------653-|5-4-111-111--111-|
||-000-000----------00000-------------000-000--------------|5-4-111-111--111-|
 *Finish Here Second Time


 Riff B
   Gtr. 1                                                       (2x)
||------------------------------------------------------------------||
||-----------------------------------------------------------------.||
||------------------------------------------------------------------||
||--------7/85--------------------------7/85-------------------5---.||
||--------5/63-4-15-4-111-111-----------5/63-1-0------565h9p5---1---||
||-000-000-----4-15-4-111-111---000-000------1-0-01438-------4---1--||

 Riff C (Cont.)
   Gtr. 1
||--------------------------------------------------------------------------|
||--------------------------------------------------------------------------|
||--------------------------------------------------------------------------|
||----10~-87/-8\7-4~~----------------3p2--3p2--3p2------------------454-4---|
||-0--12~109/10\9-5~~--0-0--0-1----00---00---00---1p0-------0~~---3~-----66-|
||-0-------------------0-2--0-1----------------------1p0h1h30~~-------------|

 Riff C (Cont.)
   Gtr. 1   (1x)
||-------------||
||-------------||
||-------------||
||-------3~----||
||-4-54-01~----||
||-6-76-23~----||

 Riff D
   Gtr. 1
||--------------------------------------------------------------------------|
||--------------------------------------------------------------------------|
||--------------------------------------------------------------------------|
||---------7h8p7-------------------44445p488887777-------------7h8p7--------|
||---------5h6p5-1~--------33335555---------------565~---------5h6p5-5-4-1--|
||-000-000-------1~00000-------------------------------000-000-------5-4-1--|

 Riff D
   Gtr. 1 (This Part Spaced Out)(2x)
||---------------------------------|---||
||--------------------------------.|---||
||---------------------------------|---||
||-----------------5-4-7-5-4------.|---||
||-----------5-3-6-----------6-5-3-|-0-||
||-0-1-4-5-8-----------------------|-0-||


 Riff E
   Gtr. 1
||-----------------------------------------------------------------|
||-----------------------------------------------------------------|
||-----------------------------------------------------------------|
||-------------------------------------------------5-4-7-5-4-------|
||---------1-4-1-----5-4-1-----------------1-5-3-6-----------6-5-3-|
||-0-1-4-5-------5-4-------5-4-1-0-0-1-4-5-------------------------|

 Riff E (Cont.)
   Gtr. 1                                                     (2x)
||-----------------------------------------------------------------||
||----------------------------------------------------------------.||
||-----------------------------------------------------------------||
||----------------------------------------------------4h5~4h5h7h8~.||
||---------1-4-1-----5-4-1-----------------1-5-3-6-5h6-------------||
||-0-1-4-5-------5-4-------5-4-1-0-0-1-4-5-------------------------||

 Riff F
   Gtr. 1             (1x)
||------------------------||
||------------------------||
||-ah---------------------||
||-7~---------------------||
||-----5-4-0-1~-----------||
||---0-5-4-0-1~-000-000---||

 Riff G
   Gtr. 1
||-----------------------------------------------------|
||-----------------------------------------------------|
||-----------------------------------------------------|
||-----------------------------------------5p4-4-------|
||---------44445555--1111---------------------6-6p55p0-|
||-00005555--------0-----1-55551111000-000-------------|

 Riff G (Cont.)
   Gtr. 1                                         (2x)
||----------------------------------------------------||
||----------------------------------------------------||
||----------------------------------------------------||
||----------------------------------------887-----3---||
||---------44445555--1111---------------------595-1-1-||
||-00005555--------0-----1-55557777111-111-------0-01-||


 Riff E 1x


 Riff H
   Gtr. 1                                                          (2x)
||----------------------------------------------------------------------||
||---------------------------------------------------------------------.||
||----------------------------------------------------------------------||
||-7/8\7----------------7/8\7--------5-47/8\7--------------------*-----.||
||-5/6\5------051~4-----5/6\5-----146-6-5/6\5------051~4---5-4-1-1-401--||
||------01-015-----54-00-----01~01-----------01-015-----54-5-4-1-1-401--||

 * 2nd Time Do Not Play This Note

 Riff I
   Gtr. 1
|----------------------------------------------------------------------------|
|----------------------------------------------------------------------------|
|----------------------------------------------------------------------------|
|-------44458p755444-------------------------44458p755444---------------4578-|
|--55666------------66p5------------------55666------------66p5-------0356---|
|-0---------------------000-000-0~000000-0---------------------000-000-------|
   |_||_||_||_||_||_|                     |_||_||_||_||_||_|

 Riff I (Cont.)                              ________________________________
   Gtr. 1                                   |                              1.
||-----------------------------------------|--------------------------------|
||-----------------------------------------|----------------------ah--------|
||-----------------------------------------|--------------------8-7~5-------|
||-------44458p755444----------------------|-------4457--4445578-----8754---|
||--55666------------6-6p5-----------------|--55666----66----------------65-|
||-0----------------------000-000-0~000000-|0~------------------------------|
    |_||_||_||_||_||_|                        |_______||_______|    |__||_|

 Riff I (Cont.)  _______________
   Gtr. 1       |              2.
||------------------------------||
||----------------------ah------||
||--------------------8-7~5-----||
||--------4457--445578-----875--||
||---55666----66--------------6-||
||-0~---------------------------||
||                              ||
|| Gtr. 2                       ||
||------------------------------||
||------------------------------||
||----------------------ah------||
||--------4457--4455788-7~8754--||
||---55666----66--------------6-||
||-0~---------------------------||
     |_______||______|

 Riff H 2x


 Riff A 2x (Without Last Section 2nd Time)


 Riff A1
   Gtr. 1          (1x)
||--------------------||
||--------------------||
||--------------------||
||--------------------||
||-5--4--111-111-4-1--||
||-5--4--111-111-4-1--||

 Riff J
   Gtr. 1                                                                 (3x)
|----------------------------------------------------------------------------|
|----------------------------------------------------------------------------|
|-------------5--------------------------------------------------------------|
|------------4-444444-5-5-4-444444-------------------------------------------|
|5-5-35666666--------------6------63666666-5-5-35666666-333-------5-414------|
|----------------------------------------------------------555444-5-414111-0-|


 Riff E1
   Gtr. 1
|-----------------------------------------------------------------|
|-----------------------------------------------------------------|
|-----------------------------------------------------^---^-------|
|---------^---^-----^---^-----------------^-----^-5-4-7-5-4-----^-|^
|-^-------1-4-1-----5-4-1-----------------1-5-3-6-----------6-5-3-|
|-0-1-4-5-------5-4-------5-4-1-0-0-1-4-5-------------------------|
 Riff E1 (Cont.)
   Gtr. 1                                                     (2x)
||----------------------------------------------------------------||
||---------------------------------------------------------------.||
||----------------------------------------------------------------||
||---------^---^-----^---^-----------------^----------45~-44578~-.||
||-^-------1-4-1-----5-4-1---------^-------0-1-3-5-556------------||
||-0-1-4-5-------5-4-------5-4-1-0-0-1-4-5------------------------||

 Riff F 1x

 Riff G 2x


 Riff K
   Gtr. 1   (1x)
||-------------||
||-------------||
||-------------||
||-------------||
||-0-----0-0---||
||-0-----0-0---||

 Riff L
   Gtr. 1
||-------------------------------------------------------------|
||-------------------------------------------------------------|
||---------------------5---------------------------------------|
||-------4554--4h5---7--------------------------5--------------|
||--35656----65----66-6-6~-------------3h5h6~5h6--6-5----------|
||-0-----------------------1h3h5~3h5h6~---------------000-000--|
   |______||_____|

 Riff L (Cont.)
   Gtr. 1                                           (3x)
||-------------------------------------------------------||
||------------------------------------------------------.||
||---------------------------5---------------------------||
||---------------4455----77------8754-------------------.||
||-----5566335566----6655--55-3~-----6531-5--0-4----1p0--||
||-0077-----------------------------------5--0-4-0001p0--||

 Riff M
   Gtr. 1      (1x)
||-----------------||
||-----------------|| *(1-0, Not 10)
||-----------------||
||----*-------*----||
||-4--10-1-5--10-0-||
||-4--10-1-5--10-0-||


 Riff J 2x


 Riff D 2x





Comments


Popular Psycroptic tabs & chords
Battling The Misery Of Organon Tabs
Carnival Of Vulgarity Tabs
Lacertine Forest 1 Tabs
Nether World Reality Tabs
Of Dull Eyes Borne Tabs
Our Evolutionary Architecture Tabs
The Colour Of Sleep Tabs
The Labyrinth Tabs
The Sword Of Uncreation Tabs
The Valley Of Winds Breath And Dragons Fire Tabs


Song lyrics



↑ Back to top | Tablatures and chords are parodies/interpretations of the original songs. You may use it for private study, scholarship, research or language learning purposes only
© 2014 AZChords.com Contact us | Privacy policy | DMCA | Add/correct tabs | Request tabs | Top 50 tabs