» » »

Psycroptic, Beneath The Ground We Dwell Tabs (ver.1)

Artists:  A B C D E F G H I J K L M N O P Q R S T U V W X Y Z # 

Beneath The Ground We Dwell Tabs (ver.1)

Psycroptic Tabs
 Rating:
4/5 (7 votes)
Beneath The Ground We Dwell lessons Tabs too difficult? Try these video lessons and learn fast
                Psycroptic - 'Beneath The Ground We Dwell'
The Isle Of Disenchantment (2001)
Self Released


________________________________________________________________________________
________________________________________________________________________________
Dropped C# Tuning (C# G# C# F# A# D#)


 Riff 1
   Gtr. 1
||-------|-------------------------------------------------------------------|
||-------|-------------------------------------------------------------------|
||-------|-------------------------------------------------------------------|
||-------|------7777--------6666----------------7777--------6666-------------|
||-2--1--|----------55558888----555588886666--------55558888----555588886666-|
||-2--1--|--0000----------------------------0000-----------------------------|

 Riff 2
   Gtr. 1
||---------------------------------|-----------------------------------------|
||.-------------------------------.|---------3rd-Time-Stop-Here-*------------|
||---|-----------------------------------------|
||.------------------------------.|-----8888--------7777----------------8888-|
||-0-7-0-3-6-0-3-1-0-7-0-3-6-0-3-1-|-0~------55558888----5555888866665555----|
||-0-7-0-3-6-0-3-1-0-7-0-3-6-0-3-1-|-0~--------------------------------------|

 Riff 2 (Cont.)
   Gtr. 1                      3x
 |-------------------------------||
 |------------------------------.||
 |-------------------------------||
 |---------7777-----------------.||
 |-55558888----5555888866665555--||
 |-------------------------------||

 Riff 3                                               _________  _______
   Gtr. 1                                            |   1,2,3. |     4.
||-----------------------|--------------------------|----------|--------||
||-----------------------|.-------------------------|---------.|--------||
||-----------------------|--------------------------|----------|--------||
||-----------------------|.-------------------------|---------.|--------||
||-6~/7--0h7p0-3h6p0-3p1-|------1111--------0000----|----------|-3---1--||
||-----------------------|--0000----00003333----0000|-33331111-|-3---1--||

 Riff 4
   Gtr. 1                               Whole Riff 2x
||-------------------------|-------------------------||
||.-.|.-.||
||-------------------------|-------------------------||
||.---2-------------------.|.-----------------------.||
||-0--0--0--3--6--0--3--1--|-7--0--3--6--0--3--1--0--||
||-0-----0--3--6--0--3--1--|-7--0--3--6--0--3--1--0--||

 Riff 5
   Gtr. 1
||----------------------------------------------------------------------||
||----------------------------------------------------------------------||
||----------------------------------------------------------------------||
||----------------------77776666----------------------------------------||
||-0--7--3--6~--00007777--------77778888333366667777333355556~----------||
||-0--7--3--6~--------------------------------------------------8~--7~--||

 Riff 6
   Gtr. 1                                                 4x
||----------------------------------------------------------||
||--------------------------------End-Here-Fourth-Time-*---.||
||----------------------------------------------------------||
||-33332222------------------------33332222----------------.||
||---------3333222233335~--11110~----------333322225~~~1-0--||
||----------------------------------------------------------||

 Riff 7
   Gtr. 1
||------------------------------------------------------------------------||
||------------------------------------------------------------------------||
||------------------------------------------------------------------------||
||------------------------------------------------------------------------||
||-----0---0-0-0-0-------0---0-0-0-0-------0---0-0-0-0-------0---0-0-0----||
||-00000---0-0-0-0---00000---0-0-0-0---00000---0-0-0-0---00000---0-0-0-6\-||

 Riff 8
   Gtr. 1
||---------------------|-------------------------------------------------|
||---------------------|-------------------------------------------------|
||---------------------|-------------------------------------------------|
||---------------------|-------------------3-----------------------------|
||-------6---3-0-3-1-0-|-------------3-5-6---6-5-------6-----5-----8-----|
||-0-0-0-6-0-3-0-3-1-0-|-0-0-0-3-5-6-------------0-0-0---0-0---0-0---0-0-|

 Riff 8 (Cont.)
   Gtr. 1
 |---------------------------------------------------------------------------|
 |---------------------------------------------------------------------------|
 |---------------------------------------------------------------------------|
 |-8-6-5-------------------------5h6p5---6h8p6-------------------------------|
 |-------8-6-5-3-5-6-8-5-8-----------------------6h8p6---5-6-5-3-5-3-0-3-0---|
 |-------------------------0-0-0-------0-------0-------0-------------------6-|

 Riff 8 (Cont.)
   Gtr. 1                                            2x
 |-----------------------------------------------------||
 |----------------------------------------------------.||
 |-----------------------------------------------------||
 |-------6h8p6-------------------6-5------------------.||
 |---------------6h8p6---5h6p5-------8-6-5-3-------1---||
 |-0-0-0-------0-------0-------0-------------6-5-3-1---||

 Riff 9
   Gtr. 1
||-------------------------------------------------||
||-------------------------------------------------||
||-------------------------------------------------||
||----------------------------------------88887777-||
||-0-55555-0-55665-0-5555-0-55555-0-55665----------||
||-0-------0-------0------0-------0----------------||

 Riff 9
   Gtr. 1                                              3x
 |-------------------------------------------------------||
 |------------------------------------------------------.||
 |--------------------------------------------5h7h8p7~~--||
 |---------------------------------------5h7h8----------.||
 |-0-55555-0-55665-0-5555-0-55555-0-5h7h8----------------||
 |-0-------0-------0------0-------0----------------------||

 Riff 10
   Gtr. 1                                                         2x
||------------------------------------------------------------------||
||-----------------------------------------------------------------.||
||------------------------------------------------------------------||
||-----------------------------------------------------------------.||
||---------------------------------------------------------555533~~-||
||-00003333333300003366333300003333000033333333000033663333---------||

 Riff 11
   Gtr. 1                                                          2x
||-------------------------------------------------------------------||
||------------------------------------------------------------------.||
||-------------------------------------------------------------------||
||------------------------------------------------------------------.||
||---------3~--0-------3---0---3~--0-------3~--0-------3~--55553333--||
||-000033333~--0---33663---0---3~--0---33333~--0---33663~------------||


 Riff 4 2x (Faster And More Muted)

 Riff 12
   Gtr. 1
||---------------------|--------------------------------------------------|
||---------------------|--------------------------------------------------|
||---------------------|--------------------------------------------------|
||---------------------|-------------------33-----------------------------|
||-------------------0-|-------------335566--6655------666666555555888888-|
||-0000006600330033110-|-000000335566------------000000-------------------|

 Riff 12 (Cont.)
   Gtr. 1
 |----------------------------------------------------------------------|
 |----------------------------------------------------------------------|
 |----------------------------------------------------------------------|
 |-886655------------------------------8866-----------------------------|
 |-------8866553355668-5-8-0~--------55----558866--556655335-3-0-3-0----|
 |-------------------------0~----6655------------77------------------6~-|

 Riff 12 (Cont.)
   Gtr. 1
 |-------------------------------------------------||
 |-------------------------------------------------||
 |-------------------------------------------------||
 |-------7777--------------6655--------------------||
 |-0---------5~887700775500----8~66553~----3-1~----||
 |-0-----------------------------------66553-1~----||
            
Submit corrections

comments powered by Disqus
↑ Back to top | Psycroptic Tabs for Beneath The Ground We Dwell. Lyrics for acoustic guitar and electric guitar. Tablatures and chords are parodies/interpretations of the original songs. You may use it for private study, scholarship, research or language learning purposes only