>
 >
Without Hope

Without Hope Guitar Tabs

Prong - Without Hope chords, tabs, tablatures, lyrics

Guitar lessons | Add/correct | Request | Top 50 tabs Artists:  A B C D E F G H I J K L M N O P Q R S T U V W X Y Z 0-9

Without Hope Guitar Tabs – Prong

CD, Sheet music, Poster

Do you like Without Hope? Share with your friends now
Tabs
Username: okregisterme

detune strings 1-5 one whole step
detune string 6 two whole steps

p - pull-off
% - rest
(x)X(x) - 1st number indicates number of preceding staffs to repeat,
          2nd number indicates number of repeats
s - semi-tone bend
r - release bend
\ - slide down
/// - tremolo strum (strum as fast and continuously as possible)
m - palm-mute
ph - pinch harmonic

  intro 

1----------------
2----------------
3----------------
4---------8---6--
5---------6---4--
6-0--3p0--------- 

1-----------------------------
2-----------------------------
3-----------------------------
4--------------------------%--
5-----------------------------
6-0--0---0--0--0---0--0--0----  1X2

1---------------------------------------
2---------------------------------------
3---------------------------------------
4--------------------------------8---8--
5--------------------------------6---6--
6-0--0---0--0--0---0--0--0--3p0---------

1-----------------------------------------------------------------------------
2-----------------------------------------------------------------------------
3-----------------------------------------------------------------------------
4----------------------------------------------------------------------8---6--
5-----------------------------------4----------------------------------6---4--
6-0--0---0--0--0---0--0--0---0--3p0-----0--0---0--0--0---0--0--0--3p0---------

1-------------------------------------------------------------------------------
2-------------------------------------------------------------------------------
3-------------------------------------------------------------------------------
4----------------------------------------------------------------------8---6-%--
5-----------------------------------4----------------------------------6---4----
6-0--0---0--0--0---0--0--0---0--3p0-----0--0---0--0--0---0--0--0--3p0-----------

1----------------------
2----------------------
3----------------------
4---------8-----sr\-%--
5---------6-----sr\---- 
6-0--3p0---------------

  verse

1-------------------
2-------------------
3-------------------
4---------8---8\-%--
5---------6---6\----
6-0--3p0------------  1X1

1--------------------------------------------------------------------------
2--------------------------------------------------------------------8-----
3-5--5---5--5--5---5--7--7---7--7--7---7--8--8---8--8--8---8--8--8---8--8--
4-0--0---0--0--0---0--0--0---0--0--0---0--0--0---0--0--0---0--0--0---0--0--
5--------------------------------------------------------------------------
6--------------------------------------------------------------------------  1X1

  chorus

1-----------------------------------------
2-----------------------------------------
3-10-------12------------10-------12------
4-x--///---x--///--------x--///---x--///--
5-8--------10------------8--------10------
6-----------------------------------------  1X1

  2nd verse

1--------------------------------------------------------------------------
2--------------------------------------------------------------------8-----
3-5--5---5--5--5---5--7--7---7--7--7---7--8--8---8--8--8---8--8--8---8--8--
4-0--0---0--0--0---0--0--0---0--0--0---0--0--0---0--0--0---0--0--0---0--0--
5--------------------------------------------------------------------------
6--------------------------------------------------------------------------

1----------------------------------------------------------------------------
2--------------------------------------------------------------------8-------
3-5--5---5--5--5---5--7--7---7--7--7---7--8--8---8--8--8---8--8--8---8--8----
4-0--0---0--0--0---0--0--0---0--0--0---0--0--0---0--0--0---0--0--0---0--0-%--
5----------------------------------------------------------------------------
6----------------------------------------------------------------------------

1-------------------
2-------------------
3-------------------
4---------8---8\-%--
5---------6---6\----
6-0--3p0------------

  2nd chorus - same as first

  pre-solo

  m  m   m  m  m   m  m  m
1----------------------------------------
2----------------------------------------
3----------------------------------------
4----------------------------------------
5-0--0---0--0--0---0--0--0-----------4---
6-0--0---0--0--0---0--0--0---0--3p0------

  m  m   m  m  m   m  m  m
1------------------------------------------
2------------------------------------------
3------------------------------------------
4------------------------------------8--6--
5-0--0---0--0--0---0--0--0-----------6--4--
6-0--0---0--0--0---0--0--0---0--3p0--------

                                     ~
  m  m   m  m  m   m  m  m           ph
1----------------------------------------
2----------------------------------------
3----------------------------------------
4----------------------------------------
5-0--0---0--0--0---0--0--0-----------4---
6-0--0---0--0--0---0--0--0---0--3p0------

  m  m   m  m  m   m  m  m
1------------------------------------------
2------------------------------------------
3------------------------------------------
4------------------------------------8--6--
5-0--0---0--0--0---0--0--0-----------6--4--
6-0--0---0--0--0---0--0--0---0--3p0--------

  solo rhythm - /// throughout

1------------------------------------------------------------------------------
2------------------------------------------------------------------------------
3------------------------------------------------------------------------------
4------------------------------------------------------------------------------
5------------------------------------------------------------------------------
6-8--------------------------------------------------7-------------------------

1------------------------------------------------------------------------------
2------------------------------------------------------------------------------
3------------------------------------------------------------------------------
4------------------------------------------------------------------------------
5------------------------------------------------------------------------------
6-8---------------------------------7----------------5-------------------------

1------------------------------------------------------------------------------
2------------------------------------------------------------------------------
3------------------------------------------------------------------------------
4------------------------------------------------------------------------------
5------------------------------------------------------------------------------
6-8---------------------------------10----------8------------------------------

1------------------------------------------------------------------------------
2------------------------------------------------------------------------------
3------------------------------------------------------------------------------
4------------------------------------------------------------------------------
5------------------------------------------------------------------------------
6-10--------------12-----------------------------------------------------------

  3rd chorus - same as first

  outro

1-----------------------------
2-----------------------------
3-----------------------------
4--------------------------%--
5-----------------------------
6-0--0---0--0--0---0--0--0----  1X2

1-----------------------------------------
2-----------------------------------------
3-----------------------------------------
4--------------------------------4---3-%--
5--------------------------------4---3----
6-0--0---0--0--0---0--0--0--3p0--4---3----





Comments


Popular Prong tabs & chords
Another Worldly Device 1 Tabs
Avenue Of The Finest Tabs
Dark Signs Tabs
Detached Intro Tabs
Face Value 1 Tabs
Home Rule Tabs
Prime Tabs
Prove You Wrong Tabs
Revenge Best Served Cold Tabs
The Banishment Tabs


Song lyrics



↑ Back to top | Tablatures and chords are parodies/interpretations of the original songs. You may use it for private study, scholarship, research or language learning purposes only
© 2014 AZChords.com Contact us | Privacy policy | DMCA | Add/correct tabs | Request tabs | Top 50 tabs