» » »

Prong, Unfortunately Tabs (ver.1)

Artists:  A B C D E F G H I J K L M N O P Q R S T U V W X Y Z # 

Unfortunately Tabs (ver.1)

Prong Tabs
 Rating:
4/5 (4 votes)
Unfortunately lessons Tabs too difficult? Try these video lessons and learn fast
                Username: okregisterme

detune strings 1-5 one whole step from standard
detune string 6 two whole steps from standard

s - semi-tone bend
(x)X(x) - 1st number indicates number of preceding staffs to repeat,
          2nd number indicates number of repeats
. - sound chord then immediately dampen
/ - slide up
(fret number) - sound note by sliding into it, don't pick
~ - vibrato
^ - pinch harmonic
m - palm-mute
% - rest
h - hammer-on

  intro

1-0----0---------------
2-5s---5---------------
3----------------------
4---------0------------
5---------0------------
6---------0---0--0--0--  1X7

1-0----0--------------------
2-5s---5--------------------
3---------------------------
4---------0-----------------
5---------0-----------------
6---------0---0--0--/(15)\--

  refrain

  .      .
1---------------------
2---------------------
3---------------------
4-0---0--0---0--0--0--
5-0---0--0---0--0--0--
6-0---0--0---0--0--0--  1X2

               ~
  .            ^
1-----------------
2-----------------
3-----------------
4-0---0--0--0-----
5-0---0--0--0-----
6-0---0--0--0--3--  2X1

  verse - guitar lays out, plays this fill and refrain and intro parts

  fill 1

  m   m m m m m  m
                 .
1-------------------
2-------------------
3-------------------
4-------------------
5-------------------
6-0---3-3-3-3-3--0--

  interlude

1-0----0--0---0--0--0--0----0--0---0--0--0--
2-5s---5--5---5--5--5--5s---5--5---5--5--5--
3-------------------------------------------
4-------------------------------------------
5-------------------------------------------
6-------------------------------------------

1-0----0--0---0--0--0--0----0--0------------
2-5s---5--5---5--5--5--5s---5--5------------
3-------------------------------------------
4----------------------------------0--0--0--
5----------------------------------0--0--0--
6----------------------------------0--0--0--

1-0----0--0---0--0--0--0----0--0---0--0--0--
2-5s---5--5---5--5--5--5s---5--5---5--5--5--
3-------------------------------------------
4-------------------------------------------
5-------------------------------------------
6-------------------------------------------

1-0----0--0---0--0--0--0----0--------------------------
2-5s---5--5---5--5--5--5s---5--------------------------
3------------------------------------------------------
4------------------------------0-----------------0-----
5------------------------------0-----------------0-----
6------------------------------0---0--0--/(15)---0--%--

  2nd verse - play fill 1

  chorus

1-------------------------------------------
2-------------------------------------------
3-------------------------------------------
4-3h4--0--3---3--3--3--3h4--0--3---3--3--3--
5-3h4--0--3---3--3--3--3h4--0--3---3--3--3--
6-3h4--0--3---3--3--3--3h4--0--3---3--3--3--

1-------------------------------------------
2-------------------------------------------
3-------------------------------------------
4-3h4--0--3---3--3--3--3h4--0--3---0--0--0--
5-3h4--0--3---3--3--3--3h4--0--3---0--0--0--
6-3h4--0--3---3--3--3--3h4--0--3---0--0--0--

1-------------------------------------------
2-------------------------------------------
3-------------------------------------------
4-3h4--0--3---3--3--3--3h4--0--3---3--3--3--
5-3h4--0--3---3--3--3--3h4--0--3---3--3--3--
6-3h4--0--3---3--3--3--3h4--0--3---3--3--3--

1--------------------------------------------
2--------------------------------------------
3--------------------------------------------
4-3h4--0--3---3--3--3--3--4--3--0---0--0--0--
5-3h4--0--3---3--3--3--3--4--3--0---0--0--0--
6-3h4--0--3---3--3--3--3--4--3--0---0--0--0--  4X1

  repeat interlude

  bridge

     .           .           .           .
1--------------------------------------------
2--------------------------------------------
3--------------------------------------------
4-0--0--------0--0--------0--0--------0--0---
5-0--0--------0--0--------0--0--------0--0---
6-0--0--------0--0--------0--0--------0--0---

     .           .
1--------------------------------------
2--------------------------------------
3--------------------------------------
4-0--0--------0--0-----------9--10--9--
5-0--0--------0--0-----------9--10--9--
6-0--0--------0--0-----------9--10--9--

  3rd verse - use same parts

  2nd chorus - same

  outro - this, plus refrain (no pinch harmonic)

1----------
2----------
3----------
4-3--4--3--
5-3--4--3--
6-3--4--3--
            
Submit corrections

comments powered by Disqus
↑ Back to top | Prong Tabs for Unfortunately. Lyrics for acoustic guitar and electric guitar. Tablatures and chords are parodies/interpretations of the original songs. You may use it for private study, scholarship, research or language learning purposes only