>
 >
The Banishment

The Banishment Guitar Tabs

Prong - The Banishment chords, tabs, tablatures, lyrics

Guitar lessons | Add/correct | Request | Top 50 tabs Artists:  A B C D E F G H I J K L M N O P Q R S T U V W X Y Z 0-9

The Banishment Guitar Tabs – Prong

CD, Sheet music, Poster

Do you like The Banishment? Share with your friends now
Tabs
DROP-C TUNING

INTRO/PRE-CHORUS AND VERSE:

                                                      D5 C#5     
               PM PM   PM PM   PM PM    PM PM   PM PM            
               S  S  S S  S  S S  S   S S  S  S S  S  S  S    3x 
D||-------||---------------------------------------------------||
A||-------||---------------------------------------------------||
F||-------||*------------------------------------------------*-||
C||-------||*-----------------------------------------9s-8---*-||
G||-------||---------8-------7-------10-------8-------7s-6-----||
C||-------||---0--0----0--0----0--0-----0--0----0--0-----------||
 
 
                        F#5       C#5        D#5     E5 C5         C#5      
  PM PM   PM PM   PM PM     PM PM     PM PM                                 
  S  S  S S  S  S S  S  S   S  S  S   S  S   E       E  E  E.  E.  E.  E.   
------------------------------------------------||---------0---0-----------|
------------------------------------------------||---------5---5-----------|
------------------------------------------------||*------------------------|
------------------------6---------8---------10--||*--4--0----------1---6---|
--------8-------7-------6---------6----------8--||---4--0----------1---6---|
--0--0----0--0----0--0--6---0--0------0--0------||---4--0----------1---6---|
 
 
  E  E  E.  E.  E.  E.     E  E  E.  E.  E.  E.     E  E  E.  E.  E.  E.      
--------0---0-----------|--------0---0-----------|--------0---0---0---0-----||
--------5---5-----------|--------5---5-----------|--------5---5---5---5-----||
------------------------|------------------------|------------------------*-||
--4--0----------1---6---|--4--0----------1---6---|--4--0------------------*-||
--4--0----------1---6---|--4--0----------1---6---|--4--0--------------------||
--4--0----------1---6---|--4--0----------1---6---|--4--0--------------------||
 
 
CHORUS

   Cm          A#                G#                   C#5                       
      PM PM    PM PM    PM PM    PM PM       PM PM    PM  PM    PM PM    PM PM  
   E  S  S  E  S  S  E  S  S  E  S  S     E  S  S  E  S   S  E  S  S  E  S  S   
---------------------------------------|---------------------------------------|
---------------------------------------|---------------------------------------|
*--------------------------------------|---------------------------------------|
*--3--3--3--3--2--2--2--2--2--2--0--0--|--0--0--0--0--1---1--1--1--1--1--1--1--|
---5--5--5--5--3--3--3--3--3--3--1--1--|--1--1--1--1--1---1--1--1--1--1--1--1--|
---------------------------------------|--------------1---1--1--1--1--1--1--1--|
 
 
  Cm          A#                G#     
     PM PM    PM PM    PM PM    PM PM  
  E  S  S  E  S  S  E  S  S  E  S  S   
--------------------------------------|
--------------------------------------|
--------------------------------------|
--3--3--3--3--2--2--2--2--2--2--0--0--|
--5--5--5--5--3--3--3--3--3--3--1--1--|
--------------------------------------|
 
 
              C#5                          
     PM PM    PM  PM    PM PM    PM PM     
  E  S  S  E  S   S  E  S  S  E  S  S      
-----------------------------------------||
-----------------------------------------||
---------------------------------------*-||
--0--0--0--0--5---5--5--5--5--5--5--5--*-||
--1--1--1--1--6---6--6--6--6--6--6--6----||
-----------------------------------------||
 
 
  Cm                                       G#          C#5                    
     PM PM   PH          PM PM    PM PM       PM PM    PM  PM    PM PM        
  E  S  S    S  S  E  E  S  S  E  S  S     E  S  S  E  S   S  E  S  S  Q      
----------------------------------------|-----------------------------------||
----------------------------------------|-----------------------------------||
----------------------------------------|-----------------------------------||
--3--3--3--<>3p-2p-0--2--2--2--2--2--2--|--0--0--0--0--5---5--5--5--5--5----||
--5--5--5-------------3--3--3--3--3--3--|--1--1--1--1--6---6--6--6--6--6----||
----------------------------------------|-----------------------------------||
 
 
 
 
Duration Legend
---------------
W - whole
H - half
Q - quarter
E - 8th
S - 16th
T - 32nd
X - 64th
. - note dotted
|-n-|  - n-tuplets
 
 
Tablature Legend
----------------
L - tied note
x - dead note
g - grace note
(n) - ghost note
> - accentuded note
NH - natural harmonic
AH - artificial harmonic
TH - tapped harmonic
SH - semi harmonic
PH - pitch harmonic
h - hammer on
p - pull off
b - bend
br - bendRelease
pb - preBend
pbr - preBendRelease
brb - bendReleaseBend
\n/ - tremolo bar dip
\n - tremolo bar dive
-/n - tremolo bar Release up
/n\ - tremolo bar inverted dip
/n - tremolo bar return
-\n - tremolo bar Release down
S - shift slide
s - legato slide
/ -  slide into from below or out of upwards
\ -  slide into from above or out of downwards
~ - vibrato
W - wide vibrato
tr - tril'
TP - tremolo picking
T - tapping
S - slap
P - pop
< - fade in
^ - brush up
v - brush down





Comments


Popular Prong tabs & chords
Avenue Of The Finest Tabs
Beg To Differ Tabs
Beg To Differ 1 Tabs
Caprice Tabs
Detached Intro Tabs
Look Up At The Sun Tabs
One Outnumbered Tabs
Out Of This Misery Tabs
Snap Your Fingers 1 Tabs
Test Tabs


Song lyrics



↑ Back to top | Tablatures and chords are parodies/interpretations of the original songs. You may use it for private study, scholarship, research or language learning purposes only
© 2014 AZChords.com Contact us | Privacy policy | DMCA | Add/correct tabs | Request tabs | Top 50 tabs