>
 >
Test

Test Guitar Tabs

Prong - Test chords, tabs, tablatures, lyrics

Guitar lessons | Add/correct | Request | Top 50 tabs Artists:  A B C D E F G H I J K L M N O P Q R S T U V W X Y Z 0-9

Test Guitar Tabs – Prong

CD, Sheet music, Poster

Do you like Test? Share with your friends now
Tabs
Username: okregisterme

detune strings 1-5 one whole step
detune string 6 two whole steps

m - palm mute
% - rest
~ - vibrato
p - pull-off
/ - slide up
(x) - don't strike note
(x)X(x) - 1st number indicates number of preceding staffs to repeat,
          2nd number indicates number of repeats
h - hammer-on
q - quarter-tone bend
\ - slide down
\\\ - pick scrape

  intro

  m  m  m  m      m   m   m        m m     m     m     m     m
1-----------------------------------------------------------------
2-----------------------------------------------------------------
3-----------------------------------------------------------------
4-0--1--0--1--0---1---1---1--0--0------------------------------1--
5-0--1--0--1--0---1-%-1-%-1--0--0------8-----7-----5-----3-----1--
6-0--1--0--1--0---1---1---1--0--0--0-0-----0-----0-----0-----0-1--

  m  m  m  m      m   m   m        m m     m     m           ~
1-----------------------------------------------------------------
2-----------------------------------------------------------------
3-----------------------------------------------------------------
4-0--1--0--1--0---1---1---1--0--0---------------------------------
5-0--1--0--1--0---1-%-1-%-1--0--0------8-----7-----5p0------------
6-0--1--0--1--0---1---1---1--0--0--0-0-----0-----0-----5p0-/(10)--  2X1

1---------------------------------------------------------------------
2---------------------------------------------------------------------
3------------------0-------------------------------------0------------
4-0-----3------3---x--------------------0-----3------3---x------------
5-0-----3---0--3---6---------5p0--------0-----3---0--3---6------------
6-0-----3---0--3---6-----5h6-----5-3q---0-----3---0--3---6---6/(18)\--

1---------------
2---------------
3---------------
4---------------
5-----5p0-------
6-5h6-----5-3q--

  verse

  m  m  m  m      m   m   m        m m     m     m     m     m
1-----------------------------------------------------------------
2-----------------------------------------------------------------
3-----------------------------------------------------------------
4-0--1--0--1--0---1---1---1--0--0------------------------------1--
5-0--1--0--1--0---1-%-1-%-1--0--0------8-----7-----5-----3-----1--
6-0--1--0--1--0---1---1---1--0--0--0-0-----0-----0-----0-----0-1--

  m  m  m  m      m   m   m        m m     m     m           ~
1-----------------------------------------------------------------
2-----------------------------------------------------------------
3-----------------------------------------------------------------
4-0--1--0--1--0---1---1---1--0--0---------------------------------
5-0--1--0--1--0---1-%-1-%-1--0--0------8-----7-----5p0------------
6-0--1--0--1--0---1---1---1--0--0--0-0-----0-----0-----5p0-/(10)--  2X2

  m  m  m  m      m   m   m        m m     m     m     m     m
1-----------------------------------------------------------------
2-----------------------------------------------------------------
3-----------------------------------------------------------------
4-0--1--0--1--0---1---1---1--0--0------------------------------1--
5-0--1--0--1--0---1-%-1-%-1--0--0------8-----7-----5-----3-----1--
6-0--1--0--1--0---1---1---1--0--0--0-0-----0-----0-----0-----0-1--  1X1

  pre-chorus

     m m    m m    m m    m m    m m    m m    m m 
1----------------------------------------------------------
2----------------------------------------------------------
3----------------------------------------------------------
4-2------2------2------2------2------2------2------2-1--1--
5-2------2------2------2------2------2------2------2-1--1--
6-2--0-0-2--0-0-2--0-0-2--0-0-2--0-0-2--0-0-2--0-0-2-1--1--

     m m    m m    m m    m m    m m    m m  
1-------------------------------------------------------------
2-------------------------------------------------------------
3----------------------------------------------------------0--
4-2------2------2------2------2------2------------------------
5-2------2------2------2------2------2------2--2/(13)--13-----
6-2--0-0-2--0-0-2--0-0-2--0-0-2--0-0-2--0-0-2--2/(13)--13-----

     m m    m m    m m    m m    m m    m m    m m 
1----------------------------------------------------------
2----------------------------------------------------------
3----------------------------------------------------------
4-2------2------2------2------2------2------2------2-1--1--
5-2------2------2------2------2------2------2------2-1--1--
6-2--0-0-2--0-0-2--0-0-2--0-0-2--0-0-2--0-0-2--0-0-2-1--1--

     m m    m m    m m    m m m   m   m   m   m   m m m
1----------------------------------------------------------
2----------------------------------------------------------
3----------------------------------------------------------
4-2------2------2------2------2---0---2---0---2---0-2-0-3--
5-2------2------2------2------2-%-0-%-2-%-0-%-2-%-0-2-0-3--
6-2--0-0-2--0-0-2--0-0-2--0-0-2---0---2---0---2---0-2-0-3--

  chorus

                                                               m m     m m
1-----------------------------------------------------------------------------
2-----------------------------------------------------------------------------
3------------------0-------------------------------------0--------------------
4-0-----3------3---x--------------------0-----3------3---x-----0-0-3---0-0-1--
5-0-----3---0--3---6---------5p0--------0-----3---0--3---6-----0-0-3---0-0-1--
6-0-----3---0--3---6-----5h6-----5-3q---0-----3---0--3---6-----0-0-3---0-0-1--

1---------------------------------------------------------------------
2---------------------------------------------------------------------
3------------------0-------------------------------------0------------
4-0-----3------3---x--------------------0-----3------3---x------------
5-0-----3---0--3---6---------5p0--------0-----3---0--3---6------------
6-0-----3---0--3---6-----5h6-----5-3q---0-----3---0--3---6---6/(18)\--

1---------------
2---------------
3---------------
4---------------
5-----5p0-------
6-5h6-----5-3q--

  2nd verse

  m  m  m  m      m   m   m        m m     m     m     m     m
1-----------------------------------------------------------------
2-----------------------------------------------------------------
3-----------------------------------------------------------------
4-0--1--0--1--0---1---1---1--0--0------------------------------1--
5-0--1--0--1--0---1-%-1-%-1--0--0------8-----7-----5-----3-----1--
6-0--1--0--1--0---1---1---1--0--0--0-0-----0-----0-----0-----0-1--

  m  m  m  m      m   m   m        m m     m     m           ~
1-----------------------------------------------------------------------
2-----------------------------------------------------------------------
3-----------------------------------------------------------------------
4-0--1--0--1--0---1---1---1--0--0----------------------------------0----
5-0--1--0--1--0---1-%-1-%-1--0--0------8-----7-----5p0-------------0----
6-0--1--0--1--0---1---1---1--0--0--0-0-----0-----0-----5p0-/(10)---0-%--

           ~
1---------------
2---------------
3---------------
4-0-------------
5-0-----3/(15)--
6-0-------------

  m  m  m  m      m   m   m        m m     m     m     m     m
1-----------------------------------------------------------------
2-----------------------------------------------------------------
3-----------------------------------------------------------------
4-0--1--0--1--0---1---1---1--0--0------------------------------1--
5-0--1--0--1--0---1-%-1-%-1--0--0------8-----7-----5-----3-----1--
6-0--1--0--1--0---1---1---1--0--0--0-0-----0-----0-----0-----0-1--

  m  m  m  m      m   m   m        m m     m    m           ~
1----------------------------------------------------------------
2----------------------------------------------------------------
3----------------------------------------------------------------
4-0--1--0--1--0---1---1---1--0--0--------------------------------
5-0--1--0--1--0---1-%-1-%-1--0--0------8-----7----5p0------------
6-0--1--0--1--0---1---1---1--0--0--0-0-----0----0-----5p0-/(10)--

  m  m  m  m      m   m   m        m m     m     m     m     m
1-----------------------------------------------------------------
2-----------------------------------------------------------------
3-----------------------------------------------------------------
4-0--1--0--1--0---1---1---1--0--0------------------------------1--
5-0--1--0--1--0---1-%-1-%-1--0--0------8-----7-----5-----3-----1--
6-0--1--0--1--0---1---1---1--0--0--0-0-----0-----0-----0-----0-1--  1X1

  2nd pre-chorus

     m m    m m    m m    m m    m m    m m    m m 
1----------------------------------------------------------
2----------------------------------------------------------
3----------------------------------------------------------
4-2------2------2------2------2------2------2------2-1--1--
5-2------2------2------2------2------2------2------2-1--1--
6-2--0-0-2--0-0-2--0-0-2--0-0-2--0-0-2--0-0-2--0-0-2-1--1--

     m m    m m    m m    m m    m m    m m  
1-------------------------------------------------------------
2-------------------------------------------------------------
3----------------------------------------------------------0--
4-2------2------2------2------2------2------------------------
5-2------2------2------2------2------2------2--2/(13)--13-----
6-2--0-0-2--0-0-2--0-0-2--0-0-2--0-0-2--0-0-2--2/(13)--13-----

     m m    m m    m m    m m    m m    m m    m m 
1----------------------------------------------------------
2----------------------------------------------------------
3----------------------------------------------------------
4-2------2------2------2------2------2------2------2-1--1--
5-2------2------2------2------2------2------2------2-1--1--
6-2--0-0-2--0-0-2--0-0-2--0-0-2--0-0-2--0-0-2--0-0-2-1--1--

     m m    m m    m m    m m    m m    m m    m m    m m
1----------------------------------------------------------
2----------------------------------------------------------
3----------------------------------------------------------
4-2------2------2------2------2------2------2------2-------
5-2------2------2------2------2------2------2------2-------
6-2--0-0-2--0-0-2--0-0-2--0-0-2--0-0-2--0-0-2--0-0-2--0-0--

  2nd chorus

                                                               m m     m m
1-----------------------------------------------------------------------------
2-----------------------------------------------------------------------------
3------------------0-------------------------------------0--------------------
4-0-----3------3---x--------------------0-----3------3---x-----0-0-3---0-0-1--
5-0-----3---0--3---6---------5p0--------0-----3---0--3---6-----0-0-3---0-0-1--
6-0-----3---0--3---6-----5h6-----5-3q---0-----3---0--3---6-----0-0-3---0-0-1--

1-------------------------------------------------------------------------
2-------------------------------------------------------------------------
3------------------0-------------------------------------0----------------
4-0-----3------3---x--------------------0-----3------3---x----------------
5-0-----3---0--3---6---------5p0--------0-----3---0--3---6-----6--/(14)\--
6-0-----3---0--3---6-----5h6-----5-3q---0-----3---0--3---6-----6----------

1--------------------------------------------------------------------
2--------------------------------------------------------------------
3------------------0------------------------------------0------------
4-0-----3------3---x-------------------0-----3------3---x------------
5-0-----3---0--3---6---------5p0-------0-----3---0--3---6------------
6-0-----3---0--3---6-----5h6-----5-3---0-----3---0--3---6---6/(18)\--

1---------------------
2---------------------
3---------------------
4----------------0----
5-----5p0--------0----
6-5h6-----5-3q---0-%--

  bridge
 
1----------
2----------
3-0--------
4-----\\\--
5----------
6----------  repeat a few times, then

1------------------------------------------------------------------
2------------------------------------------------------------------
3------------------------------------------------------------------
4------------------------------------------------------------------
5-3p0-----3p0---3---0-----3p0-----3p0-----3p0---3---0-----3p0------
6-----1p0-----1-------1p0-----1p0-----1p0-----1-------1p0-----1p0--

1--------------------------------------------------------------------
2--------------------------------------------------------------------
3--------------------------------------------------------------------
4--------------------------------------------------------------------
5-5p0-----5p0---5---0-----5p0-----5p0-----5p0---5---0-----5p0-5/(7)--
6-----3p0-----3-------3p0-----3p0-----3p0-----3-------1p0------------  2X3

  solo rhythm - use first pre-chorus

  outro

                                                               m m     m m
1-----------------------------------------------------------------------------
2-----------------------------------------------------------------------------
3------------------0-------------------------------------0--------------------
4-0-----3------3---x--------------------0-----3------3---x-----0-0-3---0-0-1--
5-0-----3---0--3---6---------5p0--------0-----3---0--3---6-----0-0-3---0-0-1--
6-0-----3---0--3---6-----5h6-----5-3q---0-----3---0--3---6-----0-0-3---0-0-1--

1------------------------------------------------------------------------------
2------------------------------------------------------------------------------
3------------------0-------------------------------------0---------------------
4-0-----3------3---x--------------------0-----3------3---x-----8-8-8-8-8-8-8-8-
5-0-----3---0--3---6---------5p0--------0-----3---0--3---6-----8-8-8-8-8-8-8-8-
6-0-----3---0--3---6-----5h6-----5-3q---0-----3---0--3---6---------------------

  -gradually slow the tempo from here

1-----------------------------------------------------------
2-----------------------------------------------------------
3------------------0-------------------------0--------------
4-0-----3------3---x--------0-----3------3---x--------------
5-0-----3---0--3---6--------0-----3---0--3---6--------------
6-0-----3---0--3---6--------0-----3---0--3---6-----6/(14)\--

1-------------------------------------------
2-------------------------------------------
3------------------0-----------------0---0--
4-0-----3------3---x--------0------------x--
5-0-----3---0--3---6--------0------------6--
6-0-----3---0--3---6--------0------------6--

1---------------------------------------
2---------------------------------------
3----------0---0-----------------0---0--
4-0------------x--------0------------x--
5-0------------6--------0------------6--
6-0------------6--------0------------6--

1---------------------------------------------------
2---------------------------------------------------
3----------0---0-----------------------------0---0--
4-0------------x--------------------0------------x--
5-0------------6-----6---/(16)---\--0------------6--
6-0------------6-----6--------------0------------6--

1---------------------------------------
2---------------------------------------
3----------0---0---------------------0--
4-0------------x--------0------------x--
5-0------------6--------0------------6--
6-0------------6--------0------------6--

1-----------------
2-----------------
3--------------0--
4-0------------x--
5-0------------6--
6-0------------6--





Comments


Popular Prong tabs & chords
Another Wordly Device Tabs
Another Worldly Device Tabs
Avenue Of The Finest Tabs
Controller Tabs
Initiation Tabs
Not Of This Earth Tabs
Out Of This Misery Tabs
Proud Division Tabs
Snap Your Fingers 1 Tabs
Without Hope Tabs


Song lyrics



↑ Back to top | Tablatures and chords are parodies/interpretations of the original songs. You may use it for private study, scholarship, research or language learning purposes only
© 2014 AZChords.com Contact us | Privacy policy | DMCA | Add/correct tabs | Request tabs | Top 50 tabs