>
 >
Slicing

Slicing Guitar Tabs

Prong - Slicing chords, tabs, tablatures, lyrics

Guitar lessons | Add/correct | Request | Top 50 tabs Artists:  A B C D E F G H I J K L M N O P Q R S T U V W X Y Z 0-9

Slicing Guitar Tabs – Prong

CD, Sheet music, Poster

Do you like Slicing? Share with your friends now
Tabs
Username: okregisterme

detune strings 1-5 one whole step
detune string 6 two whole steps

/ - slide up
(x) - don't pick note
\ - slide down
(x)X(x) - 1st number indicates number of preceding staffs to repeat,
          2nd number indicates number of repeats
% - rest
s - semi-tone bend
|-- - hold bend
r - release bend
p - palm-mute
w - whammy effect
x - muted string
/// - tremolo picking (pick as fast and continuously as possible)
n - natural harmonic
a - artificial (or pinch) harmonic
~ - vibrato

  intro

1-------------------------------------------
2-------------------------------------------
3-------------------------------------------
4-0--11---0--11-----0--11---0--11/(12)--12--
5-0--11---0--11-----0--11---0--11/(12)--12--
6-0--11---0--11-----0--11---0--11/(12)--12--

1-------------------------------------------
2-------------------------------------------
3-------------------------------------------
4-0--11---0--11-----0--11---0--11\(10)--10--
5-0--11---0--11-----0--11---0--11\(10)--10--
6-0--11---0--11-----0--11---0--11\(10)--10--  2X2

  verse

1--------------------------------------
2--------------------------------------
3--------------------------------------
4-0-4-4-0-4---------------0-4-4-0-4----
5-0-4-4-0-4-%-------------0-4-4-0-4-%--
6-0-4-4-0-4---------------0-4-4-0-4----

1------------------------------------------------
2------------------------------------------------
3------------------------------------------------
4-0-4-4-0-4---0-4-4-0-4---0-4-4-0-4---0-4-4-0-4--
5-0-4-4-0-4-%-0-4-4-0-4-%-0-4-4-0-4-%-0-4-4-0-4--
6-0-4-4-0-4---0-4-4-0-4---0-4-4-0-4---0-4-4-0-4--

   |-----                  |------
1-----------------------------------
2-6s--6-6r---6-6-6s---6-6-8s-8-8-8--
3-----------------------------------
4-----------------------------------
5-----------------------------------
6-----------------------------------  1X3

  chorus

                                      p  p  w
1-----------------------------------------------
2-----------------------------------------------
3-------------------------------------------13--
4-0--2--3--0--2--3--0--2--3--0--2--3--------x---
5-0--2--3--0--2--3--0--2--3--0--2--3--0--0--11--
6-0--2--3--0--2--3--0--2--3--0--2--3--0--0------

                                      p  p  w
1-------------------------------------------16--
2-------------------------------------------x---
3-------------------------------------------13--
4-0--2--3--0--2--3--0--2--3--0--2--3------------
5-0--2--3--0--2--3--0--2--3--0--2--3--0--0------
6-0--2--3--0--2--3--0--2--3--0--2--3--0--0------  2X2

  2nd verse

  guitar and samples arranged for one guitar on this first bar

                w
1---------------13f------------------------------------------------
2------------------------------------------------------------------
3------------------------------------------------------------------
4-15(14)\-%---------15\(14)-%---------15\(14)-%---------15\(14)-%--
5------------------------------------------------------------------
6------------------------------------------------------------------

  guitar one (samples arranged for guitar)

1------------
2------------
3------------
4------------
5-15\(14)-%--
6------------
|
| guitar two
|
1-------------------------------------------
2-------------------------------------------
3-------------------------------------------
4-0--11---0--11-----0--11---0--11/(12)--12--
5-0--11---0--11-----0--11---0--11/(12)--12--
6-0--11---0--11-----0--11---0--11/(12)--12--

  guitar one (samples arranged for guitar)

1------------
2------------
3------------
4------------
5-15\(14)-%--
6------------
|
| guitar two
|
1----------------------------------------------------
2----------------------------------------------------
3----------------------------------------------------
4-0--11---0--11-----0--11---0--11\(10)--10---11-///--
5-0--11---0--11-----0--11---0--11\(10)--10-----------
6-0--11---0--11-----0--11---0--11\(10)--10-----------

              n n                                n n
1----------------------------------------------------------------------
2----------------------------------------------------------------------
3----------------------------------------------------------------------
4-0-4-4-0-4-------0-4---0-4/(5)--5---0-4-4-0-4-------0-4---0-4\(3)--3--
5-0-4-4-0-4-------0-4---0-4/(5)--5---0-4-4-0-4-------0-4---0-4\(3)--3--
6-0-4-4-0-4---4-4-0-4---0-4/(5)--5---0-4-4-0-4---4-4-0-4---0-4\(3)--3--

                                                             ~   ~
              n n                                n n         a   a
1-------------------------------------------------------------------
2-------------------------------------------------------------------
3-------------------------------------------------------------------
4-0-4-4-0-4-------0-4---0-4/(5)--5---0-4-4-0-4-------0-4---0--------
5-0-4-4-0-4-------0-4---0-4/(5)--5---0-4-4-0-4-------0-4---0--------
6-0-4-4-0-4---4-4-0-4---0-4/(5)--5---0-4-4-0-4---4-4-0-4---0-3---3--  2X1

   |-----                  |------
1-----------------------------------
2-6s--6-6r---6-6-6s---6-6-8s-8-8-8--
3-----------------------------------
4-----------------------------------
5-----------------------------------
6-----------------------------------  1X3

  2nd chorus - same as first

  bridge

  guitar 1

1-----------------------------------
2-----------------------------------
3-----------------------------------
4-10-///----------------------------
5-----------------------------------
6-----------------------------------
|
| guitar 2
|
1---------------------------19-///--
2------------------20-///-----------
3----------17///--------------------
4-----------------------------------
5-15-///----------------------------
6-----------------------------------

                                                                        ~
                                                                        a
1--------------------------------------------------------------------------
2--------------------------------------------------------------------------
3--------------------------------------------------------------------------
4-0--2---0--2-----0--2---0--2/(3)--3---0--2---0--2-----0--2---0--2/(3)-----
5-0--2---0--2-----0--2---0--2/(3)--3---0--2---0--2-----0--2---0--2/(3)-----
6-0--2---0--2-----0--2---0--2/(3)--3---0--2---0--2-----0--2---0--2/(3)--3--  1X1

  3rd verse

                                                             ~   ~
              n n                                n n         a   a
1-------------------------------------------------------------------
2-------------------------------------------------------------------
3-------------------------------------------------------------------
4-0-4-4-0-4-------0-4---0-4/(5)--5---0-4-4-0-4-------0-4---0--------
5-0-4-4-0-4-------0-4---0-4/(5)--5---0-4-4-0-4-------0-4---0--------
6-0-4-4-0-4---4-4-0-4---0-4/(5)--5---0-4-4-0-4---4-4-0-4---0-3---3--  1X1

  outro

                  n  n
1-----------------------------------------------
2-----------------------------------------------
3-----------------------------------------------
4-0--11---0--11---------0--11---0--11/(12)--12--
5-0--11---0--11---------0--11---0--11/(12)--12--
6-0--11---0--11---11-11-0--11---0--11/(12)--12--

                  n  n
1-----------------------------------------------
2-----------------------------------------------
3-----------------------------------------------
4-0--11---0--11---------0--11---0--11\(10)--10--
5-0--11---0--11---------0--11---0--11\(10)--10--
6-0--11---0--11---11-11-0--11---0--11\(10)--10--  2X1

    n n   n n   n n   n
1-------------------------------------
2-------------------------------------
3-------------------------------------
4-7-7-7-7-7-7-7-7-7-7-7-7-11-12-12-%--
5-7-----7-----7-----7---7-11-12-12----
6-7-----7-----7-----7---7-11-12-12----





Comments


Popular Prong tabs & chords
Snap Your Fingers Snap Your Neck Bass Tabs
Caprice Tabs
Dark Signs Tabs
Detached Intro Tabs
Home Rule Tabs
Revenge Best Served Cold Tabs
Rude Awakening 1 Tabs
Snap Your Fingers Snap Your Neck Single Edit Tabs
Sublime Tabs
Unfortunately Tabs


Song lyrics



↑ Back to top | Tablatures and chords are parodies/interpretations of the original songs. You may use it for private study, scholarship, research or language learning purposes only
© 2014 AZChords.com Contact us | Privacy policy | DMCA | Add/correct tabs | Request tabs | Top 50 tabs