>
 >
Senseless Abuse

Senseless Abuse Guitar Tabs

Prong - Senseless Abuse chords, tabs, tablatures, lyrics

Guitar lessons | Add/correct | Request | Top 50 tabs Artists:  A B C D E F G H I J K L M N O P Q R S T U V W X Y Z 0-9

Senseless Abuse Guitar Tabs – Prong

CD, Sheet music, Poster

Do you like Senseless Abuse? Share with your friends now
Tabs
Username: okregisterme

* - tremolo bar dips
^ - tremolo bar dive
/ - slide up
p - pull-off
. - strike then immediately dampen

  intro

1-------------------------------------------------
2-------9--------8--------11----------------------
3-------8--------7--------10--------8--8--10--10--
4-------6--------5--------8---------8--8--8---10--
5-0--0-----0--0-----0--0------0--0--6--6--8---8---
6-------------------------------------------------  repeat 7 times 

  intro variation

1-----------------------------------------------
2-------9--------8--------11--------------------
3-------8--------7--------10--------8---10--10--
4-------6--------5--------8---------8---10--10--
5-0--0-----0--0-----0--0------0--0--6---8---8---
6-----------------------------------------------  repeat 3 times

  bridge

  *                           *
1--------------------------------------------------------------5--------
2-------------------------------------------------8---------------6-----
3----------------------------------------------------8------------------
4-5-----6---5---5/8-----3-----5-----6---5---5/8---------8--3---------7--
5-5-----4---3---3/6-----3-----5-----4---3---3/6------------3------------
6-3---------------------1-----3----------------------------1------------

  ~                     ^     *
1------------------------------------------------------------------------------
2-------------------------------------------------8----------------------------
3----------------------------------------------------8-------------------------
4-5-----6---5---5/8-----3-----5-----6---5---5/8---------8--3--3--3--3--3--3--3/
5-5-----4---3---3/6-----3-----5-----4---3---3/6------------3--3--3--3--3--3--3/
6-3---------------------1-----3----------------------------1--1--1--1--1--1--1/

  verse - same as intro variation

  2nd verse

1--------------------------------------------------------------------------
2--------------------------------------------------------------------------
3--------------------------------------------------------------------------
4--------------------------------------------------------------------------
5--------------------------------------------------------------------------
6-3-3-3-3-6-3-3-3-9-9-9-9-8-8-8-8-11-11-11-11-11-11-11-11-1-1-1-1-1-1-1-1--  X8

  chorus

1------------------------------------------------------
2------------------------------------------------------
3---------------------------------0-8p7p0-8p7p0-8p7p0--
4------------------------------------------------------
5-8-8-8-8-10-10-11-11---------6-6----------------------
6---------------------8-8-8-8--------------------------  repeat twice

                                    .
1--------------------------------------
2--------------------------------------
3---------------------------------8-8--
4---------------------------------8-8--
5-8-8-8-8-10-10-11-11---------6-6-6-6--
6---------------------8-8-8-8----------

  2nd verse riff 6 times and repeat chorus

  chorus variation

1------------------------------------------------------------
2------------------------------------------------------------
3---------------------------------0-8p7p0--------------------
4-----------------------------------------8p7p0-6p5p0--------
5-8-8-8-8-10-10-11-11---------6-6---------------------6p5p0--
6---------------------8-8-8-8--------------------------------  repeat twice

1------------------------------------
2------------------------------------
3---------------------------------8--
4---------------------------------8--
5-8-8-8-8-10-10-11-11---------6-6-6--
6---------------------8-8-8-8--------

  repeat bridge (with solo) 
  and intro variation riff (7 times, with some fills)
  end with

                 .
1-------------------
2-------------------
3-7--7--7--7--7--7--
4-7--7--7--7--7--7--
5-5--5--5--5--5--5--
6-------------------





Comments


Popular Prong tabs & chords
Face Value Bass Tabs
Snap Your Fingers Snap Your Neck Bass Tabs
Snap Your Fingers Snap Your Neck 1 Bass Tabs
Another Wordly Device Tabs
Beg To Differ Tabs
Beg To Differ 1 Tabs
Detached Intro Tabs
Face Value 1 Tabs
One Outnumbered Tabs
Whose Fist Is This Anyway 1 Tabs


Song lyrics



↑ Back to top | Tablatures and chords are parodies/interpretations of the original songs. You may use it for private study, scholarship, research or language learning purposes only
© 2014 AZChords.com Contact us | Privacy policy | DMCA | Add/correct tabs | Request tabs | Top 50 tabs