>
 >
Prove You Wrong

Prove You Wrong Guitar Tabs

Prong - Prove You Wrong chords, tabs, tablatures, lyrics

Guitar lessons | Add/correct | Request | Top 50 tabs Artists:  A B C D E F G H I J K L M N O P Q R S T U V W X Y Z 0-9

Prove You Wrong Guitar Tabs – Prong

CD, Sheet music, Poster

Do you like Prove You Wrong? Share with your friends now
Tabs
Band:  Prong

Copyright (c)  (Epic) (1991)
Version 1.0 - (10/09/06)



.  - palm mute           /  - slide up to
\  - slide down to       ~  - vibrato
h  - hammer on           b  - Bend
p  - pull off            Suffixes for bend
t  - tap                 f  - full bend    h - half bend
ph - pinched harmonic    q  - quarter bend t - tap bend
*  - see comment         ^  - Hold bend    r release bend
x  - Stuccatto           ~  - vibrato bend
,  - slight palm mute    () - ghost note, sustained note
"  - tremolo note        <> - harmonic
pb - pre bend

Tuning E A D G B E



 Intro

 Cleanish tone
                           [PM]
|-----------------------------------------------------9----------------|
|-9-9-9-9-9-9-9-9---------------------9-9-9-9-9-9-9-9------------------|
|-9-9-9-9-9-9-9-9-----/9\-------------9-9-9-9-9-9-9-9-------9\---------|
|-9-9-9-9-9-9-9-9-----/8\-------------9-9-9-9-9-9-9-9-------8\---------|
|---------------------/7\-----------------------------------7\---------|
|-------------------0----0-3p2-0----(0)-------------------0---0-3p2-0--|

|--------------0-------------------------9-9----------|
|------------0-------------------9-9-9-9-9-9----------|
|--------9\9\------------9\9\----9-9-9-9-9-9----------|
|----6---8\8\------------8\8\----9-9-9-9-9-9----------|
|--------7\7\------------7\7\-----------------/7/7----|
|-/6-5-0-----------5b3p0-----0---------------0-0-0-0--|

|-------------|
|-------------|
|-8-8-8-8-8-8-|
|-8-8-8-8-8-8-|
|-6-6-6-6-6-6-|
|-------------|

 Main Riff (Guitar 2 is clean, Guitar 1 is distorted)

 Guitars 1 and 2
|-------------------------------------------------------------------------|
|-------------------------------------------------------------14-14-14-14-|
|-------------------------------------------------------------13-13-13-13-|
|---8p7-8p7-----------------8p7-8p7--------------8p7-8p7------14-14-14-14-|
|---7-7-7-7------------11---7-7-7-7--------------7-7-7-7------------------|
|-0---------0--(0)-/12----0---------0--(0)--4br0---------0--0-------------|


|-------------------------|
|-------------------------|
|-------------------------|
|---8p7-8p7-----8-8-8-8-6-|
|---7-7-7-7-----6-6-6-6---|
|-0---------0-------------|

|------------------------------------------------------------------------|
|-------------------------------------------14-14-14-14------------------|
|-------------------------------------------13-13-13-13------------------|
|---8p7-8p7-----------------8p7-8p7---------14-14-14-14---8p7-8p7--------|
|---7-7-7-7------------11---7-7-7-7-----------------------7-7-7-7--------|
|-0---------0--(0)-/12----0---------0--(0)--------------0---------0--(0)-|


|----------------------------------|
|----------------------------------|
|----------------------------------|
|----------8p7-8p7-----8-8-8-8-6---|
|-----11---7-7-7-7-----6-6-6-6-----|
|-/12----0---------0---------------|

 Verse

|-------------------------------------------------------------------|
|-------------------------------------------------------------------|
|-------------------------------------------------------------------|
|-----------------------------------------------8p7-8p7-------------|
|-----------------------------------------------7-7-7-7-------------|
|---------------------------------------------0---------0--(0)--4br-|


|-------------------------------------------------------------------|
|-------------------------------------------------------------------|
|-------------------------------------------------------------------|
|-----------------------8p7-8p7-----------------8p7-8p7-------------|
|-----------------------7-7-7-7------------11---7-7-7-7-------------|
|---------------------0---------0--(0)-/12----0---------0--(0)--4br-|

                                                       ~~~~~~~~~~~~
|-------------------------------------------------------------------|
|-------------------------------------------------------------------|
|-------------------------------------------------------------------|
|-------------------------------------8p7-8p7-----------------------|
|-------------------------------------7-7-7-7-----------------------|
|-----------------------------------0---------0--(0)--4br-----------|

|------------------------------------------------------------------------|
|------------------------------------------/14-14-14-14------------------|
|------------------------------------------/13-13-13-13------------------|
|---8p7-8p7-----------------8p7-8p7--------/14-14-14-14---8p7-8p7--------|
|---7-7-7-7------------11---7-7-7-7-----------------------7-7-7-7--------|
|-0---------0--(0)-/12----0---------0--(0)--------------0---------0--(0)-|


|----------------------------------|
|----------------------------------|
|----------------------------------|
|----------8p7-8p7-----8-8-8-8-6---|
|-----11---7-7-7-7-----6-6-6-6-----|
|-/12----0---------0---------------|

 Chorus

 Guitar 1                                            ~~~~~~~~
[--------------------------------------------------------------|
[--------------------------------------------------------------|
[-9--9-------9--9--9-------9--9--9-------9--9------------------|
[-9--9-------9--9--9-------9--9--9-------9--9-----7---(7)------|
[-7--7-------7--7--7-------7--7--7-------7--7--x--5---(5)----x-|
[--------------------------------------------------------------|
[Guitar 2
[--------------------------------------------------------------|
[-14-14------14-14-14-----9--9--9------------------------------|
[-13-13------13-13-13-----9--9--9--------9--9--9---------------|
[-14-14------14-14-14-----9--9--9--------9--9--9--7---(7)----\-|
[-------------------------7--7--7--------7--7--7--5---(5)----\-|
[--------------------------------------------------------------| Rpt


|----------------------------|
|----------------------------|
|----------------------------|
|---8p7-8p7------------------|
|---7-7-7-7------------11----|
|-0---------0--(0)-/12----0--|

 2nd Verse


|-------------------------------------------------------------------|
|-------------------------------------------------------------------|
|-------------------------------------------------------------------|
|-----------------------8p7-8p7-----------------8p7-8p7-------------|
|-----------------------7-7-7-7------------11---7-7-7-7-------------|
|---------------------0---------0--(0)-/12----0---------0--(0)--4br-|


|------------------------------------------------------------------------|
|------------------------------------------/14-14-14-14------------------|
|------------------------------------------/13-13-13-13------------------|
|---8p7-8p7-----------------8p7-8p7--------/14-14-14-14---8p7-8p7--------|
|---7-7-7-7------------11---7-7-7-7-----------------------7-7-7-7--------|
|-0---------0--(0)-/12----0---------0--(0)--------------0---------0--(0)-|


|----------------------------------|
|----------------------------------|
|----------------------------------|
|----------8p7-8p7-----8-8-8-8-6---|
|-----11---7-7-7-7-----6-6-6-6-----|
|-/12----0---------0---------------|

  Rpt Chorus

 Mid 8

  F#       A       F#       A
|-----------------------------------|
|-----2---/5--(5)------2---/5---5---|
|---3---3------------3---3----6---6-|
|-4----------------4----------------|
|-----------------------------------|
|-----------------------------------| Rpt 4 X


 Guitar 1
[----------------------------|
[----------------------------|
[----------------------------|
[-9-9--9-8--8---9-9-9--9--9--|
[-7-7--7-6--6---7-7-7--7--7--|
[----------------------------|
[Guitar 2 slight overdrive
[----------------------------|
[-----9------8---------------|
[---9------8----9-9-9--9--9--|
[-9-----\8-----/9-9-9--9--9--|
[----------------------------|
[----------------------------|

 Guitar solo

  phph    phph    phph    ph~  ph~  ph~ 
|------------------------------------------0--(0)---|
|------------------------------------------0--(0)---|
|-3-3p0---3-3p0---3-3p0-----------------------------|
|-------2-------2-------2---------------------------|
|---------------------------------------------------|
|-------------------------3bp0-3bp0-3bp0-0----------|


|------------------------------------------------------------------|
|-14p12-14p12----14p12-14p12----14-14fb-14fb-14fb-14fb-14fb----r14-|
|-------------12-------------12------------------------------------|
|------------------------------------------------------------------|
|------------------------------------------------------------------|
|------------------------------------------------------------------|

                                                            ~~~~~~~
|-------------------------------------------------------------------|
|-p12--------14-----------------12p9-12p9-12p9-12p9-12p-------------|
|-----12-12b-----12b--r12-11-9--------------------------9fb---------|
|-------------------------------------------------------------------|
|-------------------------------------------------------------------|
|-------------------------------------------------------------------|


|-------------------------------------------------------------------|
|-------------------------------------------------------------------|
|-------------------------------------------------------------------|
|-2---------------------------(2)-----------------------------------|
|-2---------------------------(2)-----------------------------------|
|-0---------------------------(0)-----------------------------------|

                                                       pick scrape
|-------------------------------------------------------------------|
|-------------------------------------------------------------------|
|-------------------------------------------------------------------|
|-99-9------------------------(9)-----------------------------------|
|-77-7------------------------(7)-------------------------\-\-------|
|----0------------------------(0)--------------------------\-\------|

 Rpt Chorus 2 X

|--------------------------|
|--------------------------|
|--------------------------|
|---8p7-8p7----------------|
|---7-7-7-7------------11--|
|-0---------0--(0)-/12-----| Rpt 8 X

|---|
|---|
|---|
|---|
|-2-|
|-0-|



END





Comments


Popular Prong tabs & chords
Face Value Bass Tabs
Another Worldly Device Tabs
Beg To Differ Tabs
Caprice Tabs
Not Of This Earth Tabs
Proud Division Tabs
Rude Awakening Tabs
Rude Awakening 1 Tabs
Slicing Tabs
Third From The Sun Tabs


Song lyrics



↑ Back to top | Tablatures and chords are parodies/interpretations of the original songs. You may use it for private study, scholarship, research or language learning purposes only
© 2014 AZChords.com Contact us | Privacy policy | DMCA | Add/correct tabs | Request tabs | Top 50 tabs