» » »

Prong, Proud Division Tabs (ver.1)

Artists:  A B C D E F G H I J K L M N O P Q R S T U V W X Y Z # 

Proud Division Tabs (ver.1)

Prong Tabs
 Rating:
4/5 (4 votes)
Proud Division lessons Tabs too difficult? Try these video lessons and learn fast
1
                Username: okregisterme

detune strings 1-5 one whole step from standard
detune string 6 two whole steps from standard

/ - slide up
(fret number) - sound note by sliding into it, don't pick
\ - slide down
m - palm-mute
. - sound note then immediately dampen
% - rest
h - hammer-on
~ - vibrato
/// - strum continuously or in rhythm
f - full bend

  fill 1

1---------
2---------
3---------
4---------
5---------
6-/(15)\--

  intro - also listen for fill 2 played during this part

  m     .    m     .    m     .    m     .
1--------------------------------------------
2--------------------------------------------
3--------------------------------------------
4-0--3\(2)---0--2/(3)---0--3\(2)---0--2/(3)--
5-0--3\(2)---0--2/(3)---0--3\(2)---0--2/(3)--
6-0--3\(2)---0--2/(3)---0--3\(2)---0--2/(3)--

  m     .    m     .    m     .
1----------------------------------------------
2----------------------------------------------
3----------------------------------------------
4-0--3\(2)---0--2/(3)---0--3\(2)---0--3--2--0--
5-0--3\(2)---0--2/(3)---0--3\(2)---0--3--2--0--
6-0--3\(2)---0--2/(3)---0--3\(2)---0--3--2--0--

     .    m     .    m     .    m     .
1-----------------------------------------
2-----------------------------------------
3-----------------------------------------
4-3\(2)---0--2/(3)---0--3\(2)---0--2/(3)--
5-3\(2)---0--2/(3)---0--3\(2)---0--2/(3)--
6-3\(2)---0--2/(3)---0--3\(2)---0--2/(3)--


1-----------------------------------------------
2-----------------------------------------------
3-----------------------------------------------
4-0--3\(2)---0--2/(3)---0--3\(2)---0--3--2--6\--
5-0--3\(2)---0--2/(3)---0--3\(2)---0--3--2--6\--
6-0--3\(2)---0--2/(3)---0--3\(2)---0--3--2--6\--

  m     .    m     .    m     .    m     .
1--------------------------------------------
2--------------------------------------------
3--------------------------------------------
4-0--2/(3)---0--2/(3)---0--2/(3)---0--2/(3)--
5-0--2/(3)---0--2/(3)---0--2/(3)---0--2/(3)--
6-0--2/(3)---0--2/(3)---0--2/(3)---0--2/(3)--

  m     .    m     .    m     .
1----------------------------------------------
2----------------------------------------------
3----------------------------------------------
4-0--2/(3)---0--2/(3)---0--2/(3)---0--3--2--0--
5-0--2/(3)---0--2/(3)---0--2/(3)---0--3--2--0--
6-0--2/(3)---0--2/(3)---0--2/(3)---0--3--2--0--

     .    m     .    m     .    m     .
1-----------------------------------------
2-----------------------------------------
3-----------------------------------------
4-2/(3)---0--2/(3)---0--2/(3)---0--2/(3)--
5-2/(3)---0--2/(3)---0--2/(3)---0--2/(3)--
6-2/(3)---0--2/(3)---0--2/(3)---0--2/(3)--

  m     .    m     .    m     .
1--------------------------------------------------
2--------------------------------------------------
3--------------------------------------------------
4-0--2/(3)---0--2/(3)---0--2/(3)---0--3--2--6\-----
5-0--2/(3)---0--2/(3)---0--2/(3)---0--3--2--6\-----
6-0--2/(3)---0--2/(3)---0--2/(3)---0--3--2--6\--%--

  verse - guitar lays out, then plays this fill and intro parts

  fill 2

1-------
2-------
3-6-----
4-6-----
5-6--%--
6-------

  chorus

  m   m  m       m  m   m   m
  .           .     .   .
1----------------------------------------
2----------------------------------------
3----------------------------------------
4-0---0--0--0h2--0--0---0---0--0h2--0h2--
5-0---0--0--0h2--0--0---0---0--0h2--0h2--
6-0---0--0--0h2--0--0---0---0--0h2--0h2--

  2nd verse - same parts, listen for variations

  2nd chorus - same, plus this:

  .        .                  m   m
1----------------------------------------
2----------------------------------------
3----------------------------------------
4-0--------12--------0----------------0--
5-0--------12--------0----------------0--
6-0--------12--------0--------15--14--0--

  solo rhythm - verse and chorus parts

  solo

  ~
1-18------------------------------------------------
2-17-///--------------------------------------------
3---------------------------------------------------
4---------------------------------------------------
5---------------------------------------------------
6---------------------------------------------------

  ~
1-16------------------------------------------------
2-15-///--------------------------------------------
3---------------------------------------------------
4---------------------------------------------------
5---------------------------------------------------
6---------------------------------------------------

  ~
1-18---------------------------------------21f-///--
2-17-///--------------------------------------------
3---------------------------------------------------
4---------------------------------------------------
5---------------------------------------------------
6---------------------------------------------------

1-16------------------------------------------------
2-15------------------------------------------------
3-13-///--------------------------------------------
4---------------------------------------------------
5---------------------------------------------------
6---------------------------------------------------

1-15------------------------------------------------
2-16------------------------------------------------
3-14------------------------------------------------
4-13-///--------------------------------------------
5---------------------------------------------------
6---------------------------------------------------

1-16------------------------------------------------
2-15------------------------------------------------
3-13-///--------------------------------------------
4---------------------------------------------------
5---------------------------------------------------
6---------------------------------------------------

1-15------------------------------------------------
2-16------------------------------------------------
3-14------------------------------------------------
4-13-///--------------------------------------------
5---------------------------------------------------
6---------------------------------------------------

  outro - variation of intro parts
            
Submit corrections

comments powered by Disqus
↑ Back to top | Prong Tabs for Proud Division. Lyrics for acoustic guitar and electric guitar. 1 Tablatures and chords are parodies/interpretations of the original songs. You may use it for private study, scholarship, research or language learning purposes only