» » »

Prong, Not Of This Earth Tabs (ver.1)

Artists:  A B C D E F G H I J K L M N O P Q R S T U V W X Y Z # 

Not Of This Earth Tabs (ver.1)

Prong Tabs
 Rating:
4/5 (4 votes)
Not Of This Earth lessons Tabs too difficult? Try these video lessons and learn fast
1
                Username: okregisterme

detune string 6 one whole step

% - rest                            
x - muted string
(x)X(x) - 1st number indicates number of preceding staffs to repeat,
          2nd number indicates number of repeats
/ - slide up

  intro - clean 

1-9--9--9---10--10--10---9--9--10--12--10--9--------------------------
2-9--9--9-%-9---9---9--%-9--9--9---9---9---9--------------------------
3-9--9--9---9---9---9----9--9--9---9---9---9--------0--------0--------
4---------------------------------------------------------------------         
5---------------------------------------------------------------------
6---------------------------------------------0--5-----5--7-----7--5--

1-9--9--9---10--10--10---9--9--10--12-----------------------------------
2-9--9--9-%-9---9---9--%-9--9--9---9------------------------------------
3-9--9--9---9---9---9----9--9--9---9----------------0---------0---------
4-----------------------------------------------------------------------
5-----------------------------------------------------------------------
6---------------------------------------------0--5-----5--10-----10--3--  2X1      

  verse - with distortion

1-9-9-9--9---10-10-10--10---9-9-9--10--12--10--9--------------------------
2-9-9-9--9-%-9--9--9---9--%-9-9-9--9---9---9---9--------------------------
3-9-9-9--9---9--9--9---9----9-9-9--9---9---9---9--------0--------0--------
4-------------------------------------------------------------------------
5-------------------------------------------------------------------------
6-------------------------------------------------0--5-----5--7-----7--5--     

1-9-9-9--9---10-10-10--10---9-9-9--10--12-12-12----------------------------
2-9-9-9--9-%-9--9--9---9--%-9-9-9--9---9--9--9-----------------------------
3-9-9-9--9---9--9--9---9----9-9-9--9---9--9--9---------0---------0---------
4--------------------------------------------------------------------------
5--------------------------------------------------------------------------
6------------------------------------------------0--5-----5--10-----10--3-- 2X3

  chorus - with tremolo and distortion

1-------------0-----0-------------------------------------
2-0-----------3-------------------------------------------
3-0----1--0---0---------------------------------0---------
4-x------------------------------3------------------------
5-2--------------------------1------1--------3------3--0--
6-2--------------------0--5------------0--3---------3--0--  1X3

  repeat verse (shorten by one repeat) and chorus

  solo lead-in - with tremolo and distortion

1-9-9-9--9-------10-10-10--10-------9-9-9--9-------9-9-9--10--12--10--
2-9-9-9--9---%---9--9--9---9----%---9-9-9--9---%---9-9-9--9---9---9---
3-9-9-9--9-------9--9--9---9--------9-9-9--9-------9-9-9--9---9---9---
4---------------------------------------------------------------------
5---------------------------------------------------------------------
6---------------------------------------------------------------------

1-9--9-9----
2-9--9-9----
3-9--9-9-0--
4--------0--
5--------0--
6-----------

1-9-9-9--9---x--x---10-10-10--10---x--x---9-9-9--9---x--x---9-9-9--10--12--10--
2-9-9-9--9-%-x--x-%-9--9--9---9--%-x--x-%-9-9-9--9-%-x--x-%-9-9-9--9---9---9---
3-9-9-9--9---x--x---9--9--9---9----x--x---9-9-9--9---x--x---9-9-9--9---9---9---
4------------------------------------------------------------------------------
5------------------------------------------------------------------------------
6------------------------------------------------------------------------------

1-9--9-9----
2-9--9-9----
3-9--9-9-0--
4--------0--
5--------0--
6-----------  2X2

  solo - with tremolo and distortion


1-9-9-9--9-9-9--10-10-10--10-10-10--9-9-9--10--12--10--9--
2-9-9-9--9-9-9--9--9--9---9--9--9---9-9-9--9---9---9---9--
3-9-9-9--9-9-9--9--9--9---9--9--9---9-9-9--9---9---9---9--
4---------------------------------------------------------
5---------------------------------------------------------
6---------------------------------------------------------

1---------------------------------0---------------------
2---------------------------------0---this chord--------
3-------0--------0--------0--/16--16--X 40 or so, with--
4-------------------------------------bends-------------
5-------------------------------------------------------
6-0--5-----5--7-----7--5--------------------------------

1-0--0--0----0--0--0--0-this chord--15--15--15--15--15--15--15--15-----
2-0--0--0/8--8--8--8--5-X 20 or so-/13--13--13--13--13--13--13--13-----
3-------0----0--0--0--0-------------12--12--12--12--12--12--12--12-----
4-------------------------------------------------------------------0--
5-------------------------------------------------------------------0--
6-------------------------------------------------------------------0--

  outro - same as first chorus, with more repeats and some fills
            
Submit corrections

comments powered by Disqus
↑ Back to top | Prong Tabs for Not Of This Earth. Lyrics for acoustic guitar and electric guitar. 1 Tablatures and chords are parodies/interpretations of the original songs. You may use it for private study, scholarship, research or language learning purposes only