>
 >
Mansruin

Mansruin Guitar Tabs

Prong - Mansruin chords, tabs, tablatures, lyrics

Guitar lessons | Add/correct | Request | Top 50 tabs Artists:  A B C D E F G H I J K L M N O P Q R S T U V W X Y Z 0-9

Mansruin Guitar Tabs – Prong

CD, Sheet music, Poster

Do you like Mansruin? Share with your friends now
Tabs
Username: okregisterme

pm - palm mute
\ - slide down
(x)X(x) - 1st number indicates number of preceding staffs to repeat,
          2nd number indicates number of repeats
% - rest
(x) - sound the note without striking it, by sliding into it from lower
      on the neck

detune 6th string one whole step

  intro

       pm-------------------------      pm-------------------------
1--------------------------------------------------------------------
2--------------------------------------------------------------------
3--------------------------------------------------------------------
4--------------------------------------------------------------------
5------0-0-0-0-0-0-0-0-0-0-0-0-0-0------0-0-0-0-0-0-0-0-0-0-0-0-0-0--
6-14\------------------------------14\-------------------------------  1X3

       pm-------------        pm-     pm--------------        pm-
1------------------------------------------------------------------
2------------------------------------------------------------------
3------------------------------------------------------------------
4------------------------------------------------------------------
5------0-0-0-0-0-0-0-0-9--10--0-0------0-0-0-0-0-0-0-0-9--10--0-0--
6-14\------------------9--10------14\------------------9--10-------


       pm-------------        pm-     pm--    pm-      pm-    pm-
1------------------------------------------------------------------
2------------------------------------------------------------------
3------------------------------------------------------------------
4------------------------------------------7---------------7-------
5------0-0-0-0-0-0-0-0-9--10--0-0------0-0-7--0-0------0-0-7--0-0--
6-14\------------------9--10------14\------7------14\------7-------  2X1

  verse

  pm-------                        pm-------
1-----------------------------------------------
2-----------------------------------------------
3-----------------------------------------------
4-----------------------------------------------
5-7-7-7-7-8------------------------7-7-7-7-8----
6-7-7-7-7-8-%----------------------7-7-7-7-8-%--

  pm-------     pm-------            pm-------     pm-------
1---------------------------------------------------------------
2---------------------------------------------------------------
3---------------------------------------------------------------
4---------------------------------------------------------------
5-7-7-7-7-8-----7-7-7-7-8------------7-7-7-7-8-----7-7-7-7-8----
6-7-7-7-7-8-%---7-7-7-7-8-%----------7-7-7-7-8-%---7-7-7-7-8-%--

  chorus

  pm------------------------------------------------
1-----------------------------------------------------
2-----------------------------------------------------
3-----------------------------------------------------
4-----------------------------------------------------
5-5-7-7-7-7--7-7--7-7--7--5-5-5-7-7-7-7--7-7--7-7--7--
6-5-7-7-7-7--7-7--7-7--7--5-5-5-7-7-7-7--7-7--7-7--7--

  pm----------------------------------------------------
1------------------------------------------------------------
2------------------------------------------------------------
3------------------------------------------------------------
4--------------------------------------------------------10--
5-5-5-5-7-7-7-7--7-7--7-7--7--5-5-5-7-7-7-7--5-5-5-7-7-7-10--
6-5-5-5-7-7-7-7--7-7--7-7--7--5-5-5-7-7-7-7--5-5-5-7-7-7-10--  2X2

  2nd verse

  pm--------    pm--------     pm------------    pm--------
1---------------------------------------------------------------
2---------------------------------------------------------------
3---------------------------------------------------------------
4------------8--------------8-----------------8--------------8--
5-13-12-10-8-8--8-8--10-10--8--8-8-13-12-10-8-8--8-8--10-10--8--
6-13-12-10-8-8--8-8--10-10--8--8-8-13-12-10-8-8--8-8--10-10--8--

  pm------------    pm--------     pm------------    pm------------    pm-
1---------------------------------------------------------------------------
2---------------------------------------------------------------------------
3---------------------------------------------------------------------------
4----------------8--------------8-----------------8-----------------8-------
5-8-8-13-12-10-8-8--8-8--10-10--8--8-8-13-12-10-8-8--8-8-13-12-10-8-8--8-8--
6-8-8-13-12-10-8-8--8-8--10-10--8--8-8-13-12-10-8-8--8-8-13-12-10-8-8--8-8--2X3

  2nd chorus - same as first, with an extra repeat

  rhythm solo

  pm--------    pm--------     pm------------    pm--------
1---------------------------------------------------------------
2---------------------------------------------------------------
3---------------------------------------------------------------
4------------8--------------8-----------------8--------------8--
5-13-12-10-8-8--8-8--10-10--8--8-8-13-12-10-8-8--8-8--10-10--8--
6-13-12-10-8-8--8-8--10-10--8--8-8-13-12-10-8-8--8-8--10-10--8--

  pm------------    pm--------     pm------------    pm------------    pm-
1---------------------------------------------------------------------------
2---------------------------------------------------------------------------
3---------------------------------------------------------------------------
4----------------8--------------8-----------------7-----------------7-------
5-8-8-13-12-10-8-8--8-8--10-10--8--8-8-13-12-10-7-7--7-7-13-12-10-7-7--7-7--
6-8-8-13-12-10-8-8--8-8--10-10--8--8-8-13-12-10-7-7--7-7-13-12-10-7-7--7-7--2X3

         pm---------        pm---------
1----------------------------------------
2----------------------------------------
3----------------------------------------
4----------------------------------------
5--------0-0-0-0-0-0--------0-0-0-0-0-0--
6-/(14)--------------/(14)---------------  1X7

  3rd verse

  pm--------     pm----------      pm------------     pm----------
1-----------------------------------------------------------------------
2-----------------------------------------------------------------------
3-----------------------------------------------------------------------
4------------10----------------13-----------------10----------------13--
5-8-10-10-10-10--10-10--12-12--13--5-5-8-10-10-10-10--10-10--12-12--13--
6-8-10-10-10-10--10-10--12-12--13--5-5-8-10-10-10-10--10-10--12-12--13--

  pm------------     pm----------      pm---------    pm---------
1--------------------------------------------------------------------
2--------------------------------------------------------------------
3--------------------------------------------------------------------
4----------------10----------------13--------------7--------------7--
5-5-5-8-10-10-10-10--10-10--12-12--13--5-5-8-7-5-5-7--5-5-8-7-5-5-7--
6-5-5-8-10-10-10-10--10-10--12-12--13--5-5-8-7-5-5-7--5-5-8-7-5-5-7--  2X1

  pm--------    pm--------     pm------------    pm--------
1---------------------------------------------------------------
2---------------------------------------------------------------
3---------------------------------------------------------------
4------------8--------------8-----------------8--------------8--
5-13-12-10-8-8--8-8--10-10--8--8-8-13-12-10-8-8--8-8--10-10--8--
6-13-12-10-8-8--8-8--10-10--8--8-8-13-12-10-8-8--8-8--10-10--8--

  pm------------    pm--------     pm------------    pm------------    pm-
1---------------------------------------------------------------------------
2---------------------------------------------------------------------------
3---------------------------------------------------------------------------
4----------------8--------------8-----------------7-----------------7-------
5-8-8-13-12-10-8-8--8-8--10-10--8--8-8-13-12-10-7-7--7-7-13-12-10-7-7--7-7--
6-8-8-13-12-10-8-8--8-8--10-10--8--8-8-13-12-10-7-7--7-7-13-12-10-7-7--7-7--2X1

  outro

         pm---------        pm---------
1----------------------------------------
2----------------------------------------
3----------------------------------------
4----------------------------------------
5--------0-0-0-0-0-0--------0-0-0-0-0-0--
6-/(14)--------------/(14)---------------  1X6

1--------------------------------------------------
2--------------------------------------------------
3--------------------------------------------------
4---------------------------------------------7----
5--------0-0--------0-0--------0-0--------0-0-7----
6-/(14)------/(14)------/(14)------/(14)------7-%--





Comments


Popular Prong tabs & chords
Another Worldly Device 1 Tabs
Caprice Tabs
Initiation Tabs
Innocence Gone Tabs
Not Of This Earth Tabs
One Outnumbered Tabs
Prime Tabs
Revenge Best Served Cold Tabs
Slicing Tabs
Whose Fist Is This Anyway 1 Tabs


Song lyrics



↑ Back to top | Tablatures and chords are parodies/interpretations of the original songs. You may use it for private study, scholarship, research or language learning purposes only
© 2014 AZChords.com Contact us | Privacy policy | DMCA | Add/correct tabs | Request tabs | Top 50 tabs