» » »

Prong, Look Up At The Sun Tabs (ver.1)

Artists:  A B C D E F G H I J K L M N O P Q R S T U V W X Y Z # 

Look Up At The Sun Tabs (ver.1)

Prong Tabs
Rating:
0/5 (0 votes)
Look Up At The Sun lessons Tabs too difficult? Try these video lessons and learn fast
                Username: okregisterme

ph - pinch harmonic
~ - vibrato

1----------------------------------------------------
2----------------------------------------------------
3----------------------------------------------------
4----------------------------------------------------
5-----------------11--10--9--8----------8---8--8--8--
6-2-2-2-2-2-2-2-2-9---8---7--6--6-6-6-6-6---6--6--6--

                                        ph
1----------------------------------------------------
2----------------------------------------------------
3----------------------------------------------------
4----------------------------------------------------
5-----------------11--10--9--8----------8---8--8--8--
6-2-2-2-2-2-2-2-2-9---8---7--6--6-6-6-6-----6--6--6--

1--------------------------------------------------------
2--------------------------------------------------------
3--------------------------------------------------------
4--------------------------------------------------------
5-----------------11--10--9--7----------10---10--10--10--
6-4-4-4-4-4-4-4-4-9---8---7--5--5-5-5-5-10---10--10--10--

                             ~
1-------------------------------
2-------------------------------
3-------------------------------
4-------------------------------
5-----------------11--10--9-----
6-4-4-4-4-4-4-4-4-9---8---7--8--

1----------------------------------
2----------------------------------
3----------------6-----------6-----
4-------------6-----6-----6--------
5----7--5--4-----------------------
6-4--------------------5--------4--
            
Submit corrections

comments powered by Disqus
↑ Back to top | Prong Tabs for Look Up At The Sun. Lyrics for acoustic guitar and electric guitar. Tablatures and chords are parodies/interpretations of the original songs. You may use it for private study, scholarship, research or language learning purposes only