» » »

Prong, Innocence Gone Tabs (ver.1)

Artists:  A B C D E F G H I J K L M N O P Q R S T U V W X Y Z # 

Innocence Gone Tabs (ver.1)

Prong Tabs
 Rating:
4/5 (4 votes)
Innocence Gone lessons Tabs too difficult? Try these video lessons and learn fast
1
                Username: okregisterme

detune strings 1-5 one half step from standard
detune string 6 one and one half steps from standard

* - performance note
(x)X(x) - 1st number indicates number of preceding staffs to repeat,
          2nd number indicates number of repeats
m-- - palm-mute throughout
/ - slide up

  verse/chorus

1-------------------------------------------
2-------------------------------------------
3--------------------9---9--9--9--9---------
4-8--8--0--8--8---0--7---7--7--7--7---3--3--
5-8--8--0--8--8---0--8---8--8--8--8---3--3--
6-8--8--0--8--8---0--7---7--7--7--7---3--3--

1------------------------------------------
2------------------------------------------
3--------------------7---7--7--7--7--7--7--
4-8--8--0--8--8---0--5---5--5--6--6--6--6--
5-8--8--0--8--8---0--5---5--5--5--5--5--5--
6-8--8--0--8--8---0--5---5--5--6--6--6--6--

  2nd verse

1-----------------------------------------------------
2-----------------------------------------------------
3-----------------------------------------------------
4-8--0--15--0--8--0--15--0--8--0--15--0--8--0--15--0--
5-8--0--15--0--8--0--15--0--8--0--15--0--8--0--15--0--
6-8--0--15--0--8--0--15--0--8--0--15--0--8--0--15--0--

                                                   *
1------------------------------------------------------
2------------------------------------------------------
3------------------------------------------------------
4-11--11--11-----11--11--11-----11--11--11-----11--10--
5-11--11--11-----11--11--11-----11--11--11-----11--10--
6-11--11--11-----11--11--11-----11--11--11-----11--10--  2X2

1-----------------------------------------------------
2-----------------------------------------------------
3-----------------------------------------------------
4-8--0--15--0--8--0--15--0--8--0--15--0--8--0--15--0--
5-8--0--15--0--8--0--15--0--8--0--15--0--8--0--15--0--
6-8--0--15--0--8--0--15--0--8--0--15--0--8--0--15--0--

1---------------------------------------------------
2---------------------------------------------------
3---------------------------------------------------
4-11--11--11-----11--11--11-----11--11--11--11--1/--
5-11--11--11-----11--11--11-----11--11--11--11--1/--
6-11--11--11-----11--11--11-----11--11--11--11--1/--

* - first repeat only, substitute a pinch harmonic on the 6th string, 10th fret

  bridge

  m------------------------------------------
1--------------------------------------------------------
2--------------------------------------------------------
3--------------------------------------------------------
4---------------------------------------------7---7---7--
5---------------------------------------------7---7---7--
6-0-0-0-0-12-12-0-0-10-10-0-0-8-8-0-0-7-7-0-0-7---7---7--

  m------------------------------------------
1--------------------------------------------------------
2--------------------------------------------------------
3--------------------------------------------------------
4---------------------------------------------7---7---7--
5---------------------------------------------7---7---7--
6-0-0-0-0-12-12-0-0-10-10-0-0-8-8-0-0-7-7-0-0-7---7---7--

  m----------------------------------------------
1------------------------------------------------------------
2------------------------------------------------------------
3------------------------------------------------------------
4-------------------------------------------------7---7---7--
5-------------------------------------------------7---7---7--
6-0-0-0-0-12-12-0-0-10-10-0-0-12-12-0-0-15-15-0-0-7---7---7--

  m------------------------------------------
1--------------------------------------------------------
2--------------------------------------------------------
3--------------------------------------------------------
4---------------------------------------------7---7---7--
5---------------------------------------------7---7---7--
6-0-0-0-0-12-12-0-0-10-10-0-0-8-8-0-0-7-7-0-0-7---7---7--

  solo - with wah

1-----------------------------------------------------------
2-----------------------------------------------------------
3-----------------0--0------------------0--0------0------0--
4-----12--12----------------12--12--------------------------
5-13----------13--------13----------13--------13-----15-----
6-----------------------------------------------------------

1---------------------------------------------------------
2---------------------------------------------------------
3-----0------0------0------0------0------0------0------0--
4--------18------------18------------18------------18-----
5---------------------------------------------------------
6-18------------18------------18------------18------------

1----------------------------------------------------------------
2----------------------------------------------------------------
3-----0------0------0------0------0------0------0------0------0--
4----------------------------------------------------------------
5-15-----13-----13-----13-----15-----13-----13-----15-----16-----
6----------------------------------------------------------------

1--------------------------------------------------
2--------------------------------------------------
3-----0------0------0------0------0------0------0--
4--------18------------18------------18------------
5--------------------------------------------------
6-18------------18------------18------------18-----

1-----------------------------------------------------------
2-----------------------------------------------------------
3-----------------0--0------------------0--0------0------0--
4-----12--12----------------12--12--------------------------
5-13----------13--------13----------13--------13-----15-----
6-----------------------------------------------------------

1---------------------------------------------------------
2---------------------------------------------------------
3-----0------0------0------0------0------0------0------0--
4--------18------------18------------18------------18-----
5---------------------------------------------------------
6-18------------18------------18------------18------------

1---------------------------------------------------------
2---------------------------------------------------------
3-----0------0------0------0------0------0------0------0--
4---------------------------------------------------------
5-15-----13-----15-----13-----15-----13-----15-----13-----
6---------------------------------------------------------

1---------------------------------------------------------
2---------------------------------------------------------
3-----0------0------0------0------0------0------0------0--
4--------18------------18------------18------------18-----
5---------------------------------------------------------
6-18------------18------------18------------18------------

  solo rhythm

1-----------------------------------------------------
2-----------------------------------------------------
3-----------------------------------------------------
4-8--0--15--0--8--0--15--0--8--0--15--0--8--0--15--0--
5-8--0--15--0--8--0--15--0--8--0--15--0--8--0--15--0--
6-8--0--15--0--8--0--15--0--8--0--15--0--8--0--15--0--

1------------------------------------------------------
2------------------------------------------------------
3------------------------------------------------------
4-11--11--11-----11--11--11-----11--11--11-----11--10--
5-11--11--11-----11--11--11-----11--11--11-----11--10--
6-11--11--11-----11--11--11-----11--11--11-----11--10--  2X2

1-----------------------------------------------------
2-----------------------------------------------------
3-----------------------------------------------------
4-8--0--15--0--8--0--15--0--8--0--15--0--8--0--15--0--
5-8--0--15--0--8--0--15--0--8--0--15--0--8--0--15--0--
6-8--0--15--0--8--0--15--0--8--0--15--0--8--0--15--0--

1-----------------------------------------------
2-----------------------------------------------
3-----------------------------------------------
4-15--0--15--0--15--0--15--0--15--0--15--0--1/--
5-15--0--15--0--15--0--15--0--15--0--15--0--1/--
6-15--0--15--0--15--0--15--0--15--0--15--0--1/--

  end with

1-----------------
2-----------------
3-----------------
4-8--8--8--8--8\--
5-8--8--8--8--8\--
6-8--8--8--8--8\--
            
Submit corrections

comments powered by Disqus
↑ Back to top | Prong Tabs for Innocence Gone. Lyrics for acoustic guitar and electric guitar. 1 Tablatures and chords are parodies/interpretations of the original songs. You may use it for private study, scholarship, research or language learning purposes only