» » »

Prong, Initiation Tabs (ver.1)

Artists:  A B C D E F G H I J K L M N O P Q R S T U V W X Y Z # 

Initiation Tabs (ver.1)

Prong Tabs
Rating:
0/5 (0 votes)
Initiation lessons Tabs too difficult? Try these video lessons and learn fast
                year: 2002



MORE TABS (Rollins Band, Motorhead, The Exploited, The Gathering, Dark Angel, The Strokes):


tune down strings to:
C - G - C - F - A - D

explanation signs:

\	= slide down
/	= slide up
x	= percussionstrike
P.M.---	= mute strings
*	= unclear
R	= rest


INTRO RIFF both guitars

D -----------------------------------|-----------------------------------|
A -----------------------------------|-----------------------------------|
F -----------------------------------|-----------------------------------|
C -2-R-------------------------------|-R---------------------------------|
G -2-R-------------------------------|-R---------------------------------|
C -2-R-------------------------------|-R---------------------------------|

RIFF A VERSE both guitars

D -----------------------------------|-------------------------------------|
A -----------------------------------|-------------------------------------|
F -----------------------------------|-------------------------------------|
C -2-R---------0--0-2-R--------------|-2-R---------0--0-2-R---2-2--2-2-2/3-|
G -2-R---------0--0-2-R--------------|-2-R---------0--0-2-R---2-2--2-2-2/3-|
C -2-R---------0--0-2-R--------------|-2-R---------0--0-2-R---2-2--2-2-2/3-|
               P.M.                                P.M.

RIFF A2 last time before riff B

guitar 1

D -----------------------------------|-----------------------------------|
A -----------------------------------|-----------------------------------|
F -----------------------------------|-----------------------------------|
C -2-R---------0--0-2-R--------------|-2-R---------0--0-2-R---2-2--2-2-2-|
G -2-R---------0--0-2-R--------------|-2-R---------0--0-2-R---2-2--2-2-2-|
C -2-R---------0--0-2-R--------------|-2-R---------0--0-2-R---2-2--2-2-2-|
               P.M.                                P.M.

guitar 2

D -----------------------------------|-----------------------------------|
A -----------------------------------|-----------------------------------|
F -----------------------------------|-----------------------------------|
C -2-R---------0--0-2-R--------------|-2-R---------0--0-2-R----2-2-2-2-2-|
G -2-R---------0--0-2-R--------------|-2-R---------0--0-2-R----2-2-2-2-2-|
C -2-R---------0--0-2-R--------------|-2-R---------0--0-2-R----2-2-2-2-2-|
               P.M.                                P.M.        slightP.M.

RIFF B CHORUS
     
guitar 1 (play two times)

D ---------------------------------|---------------------------------|
A ---------------------------------|---------------------------------|
F ---------------------------------|---------------------------------|
C -0-0-0-0-0-0-0-0-0-0-0-0-0-0-0-0-|-3-3-3-3-3-3-3-3-3-3-3-3-3-3-3-3-|
G -0-0-0-0-0-0-0-0-0-0-0-0-0-0-0-0-|-3-3-3-3-3-3-3-3-3-3-3-3-3-3-3-3-|
C -0-0-0-0-0-0-0-0-0-0-0-0-0-0-0-0-|-3-3-3-3-3-3-3-3-3-3-3-3-3-3-3-3-|

D ---------------------------------|---------------------------------|
A ---------------------------------|---------------------------------|
F -5-5-5-5-5-5-5-5-5-5-5-5-5-5-5-5-|---------------------------------|
C -5-5-5-5-5-5-5-5-5-5-5-5-5-5-5-5-|-1-1-1-1-1-1-1-1-1-1-1-1-1-1-1-1-|
G -3-3-3-3-3-3-3-3-3-3-3-3-3-3-3-3-|-1-1-1-1-1-1-1-1-1-1-1-1-1-1-1-1-|
C ---------------------------------|-1-1-1-1-1-1-1-1-1-1-1-1-1-1-1-1-|

note: mute chords slightly

guitar 2
(with slight variations later on in the song) 

D -------------------------------|---------------------------------|
A -------------------6-6/8-8-8\6-|----------6--------6-6/8-8-8-8\6-|
F -------------------------------|---------------------------------|
C -0--------2--------3-3/5-5-5\3-|-*3---3-----3-3*---3-3/5-5-5-5\3-|
G -5--------R--------------------|-*3------------*-----------------|
C -0-----------------------------|---------------------------------|
   |let ring|

D ---------------------------------------|-----------------------------------|
A -6/8----------------8/10-10-10--10/-11-|-----------------------------------|
F ---------------------------------------|-8----------------8/10-10-10\8-8-8-|
C -3/5-5-5-5-5-5-5-5--5/7--7--7---7/--8--|-x---------------------------------|
G ---------------------------------------|-6-6-6-6-6-6-6-6--6/8--8--8-\6-6-6-|
C ---------------------------------------|-----------------------------------|
   |---let ring----|                       |---let ring--|

D ------------------------------|--------------------------------|
A ------------------6-6/8-8-8\6-|-6----------------6-6/8-8-8-8\6-|
F ------------------------------|--------------------------------|
C -0----------------3-3/5-5-5\3-|-3-3-3-3-3-3-3-3--3-3/5-5-5-5\3-|
G -5---5-5-5-5-5-5--------------|--------------------------------|
C ------------------------------|--------------------------------|
   |---let ring--|                |--let ring---|

D --------------------------------------|----------------------------------|
A -6/8---------------8/10-10-10--10/-11-|----------------------------------|
F --------------------------------------|-8---------------8/10-10-10\8-8-8-|
C -3/5-5-5-5-5-5-5-5-5/7--7--7---7/--8--|-x--------------------------------|
G --------------------------------------|-6-6-6-6-6-6-6-6-6/8--8--8-\6-6-6-|
C --------------------------------------|----------------------------------|
   |----let ring---|                      |---let ring--|

note: pick highest notes of octave twintones with finger

RIFF C AFTER CHORUS 

guitar 1

D ---------------------------------|---------------------------------|
A ---------------------------------|---------------------------------|
F ---------------------------------|---------------------------------|
C -2----3----1----2----------------|-2----3----1----2----------------|
G -2--0-3--0-1--0-2--*-3-3-2-0-1-*-|-2--0-3--0-1--0-2--*-2-333-0-1-*-|
C -2--0-3--0-1--0-2--*-3-3-2-0-1-*-|-2--0-3--0-1--0-2--*-2-333-0-1-*-|
PM:   -    -    -      ---------        -    -    -      ---------

guitar 2

D ---------------------------------|---------------------------------|
A ---------------------------------|---------------------------------|
F -4----5----3----4----------------|-4----5----3----4----------------|
C -2----3----1----2----------------|-2----3----1----2----------------|
G -2----3----1----2--*-3-3-2-0-1-*-|-2----3----1----2--*-2-333-0-1-*-|
C ----0----0----0----*-3-3-2-0-1-*-|----0----0----0----*-2-333-0-1-*-|
PM:   -    -    -      ---------        -    -    -      ---------

BREAK

guitar 1

D -----------------|-----------------|-----------------|-----------------|
A -----------------|-----------------|-----------------|-----------------|
F -2---------------|-3---------------|-2---------------|-3---------------|
C -2---------------|-3---------------|-2---------------|-3---------------|
G -0---------------|-1---------------|-0---------------|-1---------------|
C -----------------|-----------------|-----------------|-1---------------|

D -----------------|-----------------|-----------------|-----------------|
A -----------------|-----------------|-----------------|-----------------|
F -----------------|-----------------|-----------------|-----------------|
C -3\2-2-2-------0-|-3---------------|-3\2-2-2---------|-1---------------|
G -----------------|-----------------|-----------------|-1---------------|
C -----------------|-----------------|-----------------|-1---------------|

guitar 2 (play two times)

D -----------------|-----------------|-----------------|-----------------|
A -----------------|-----------------|-----------------|-----------------|
F -2---------------|-3---------------|-2---------------|-----------------|
C -2---------------|-3---------------|-2---------------|-1---------------|
G -0---------------|-1---------------|-0---------------|-1---------------|
C -----------------|-----------------|-----------------|-1---------------|
            
Submit corrections

comments powered by Disqus
↑ Back to top | Prong Tabs for Initiation. Lyrics for acoustic guitar and electric guitar. Tablatures and chords are parodies/interpretations of the original songs. You may use it for private study, scholarship, research or language learning purposes only