» » »

Prong, Home Rule Tabs (ver.1)

Artists:  A B C D E F G H I J K L M N O P Q R S T U V W X Y Z # 

Home Rule Tabs (ver.1)

Prong Tabs
Rating:
0/5 (0 votes)
Hard to play? Try these video lessons and learn fast.
                Username: okregisterme

detune strings 1-5 one whole step
detune string 6 two whole steps

(x)X(x) - 1st number indicates number of preceding staffs to repeat,
          2nd number indicates number of repeats
x - muted string
/ - slide up
(x) - do not strike note

  intro - clean

1----------------------------------------------------------------------
2-15--15--15--13---15--15--15--13-----15--15--15--13---15--15--15--13--
3-13--13--13--13---13--13--13--13-----13--13--13--13---13--13--13--13--
4-13--13--13--13---13--13--13--13-----13--13--13--13---13--13--13--13--  1X1
5----------------------------------------------------------------------
6----------------------------------------------------------------------

  kick in distortion

1------------------------------------------------------------
2------------------------------------------------------------
3-------------------------7-------------------------------7--
4-6--6--6--0-----6--6--6--x-------6--6--6--0-----6--6--6--x--
5-6--6--6--0-----6--6--6--5-------6--6--6--0-----6--6--6--5--
6-6--6--6--0-----6--6--6----------6--6--6--0-----6--6--6-----  1X2

  verse 

  guitar one

1----------------------------------------------------------------------------  
2--------------7------7------------------------------7------7----------------
3--------------5--x-x-5------------------------------5--x-x-5----------------
4--------------4--x-x-4------------------------------4--x-x-4----------------
5--------------4--x-x-4------------------------------4--x-x-4----------------
6-6--6--6--0-------------0--2--2--0--0--6--6--6--0-------------0--2/(5)---3--

1------------------------------------------------------------------------------
2--------------7------7------------------------------7------7------------------
3--------------5--x-x-5------------------------------5--x-x-5------------------
4--------------4--x-x-4------------------------------4--x-x-4--3/(5)--5--3--0--
5--------------4--x-x-4------------------------------4--x-x-4------------------
6-6--6--6--0-------------0--2--2--0--0--6--6--6--0-----------------------------

  guitars one and two
 
1------------------------------------------------------------------------------  
2--------------7------7------------------------------7------7------------------
3--------------5--x-x-5------------------------------5--x-x-5------------------
4-6--6--6--0---4--x-x-4------------------------------4--x-x-4--3/(5)--5--3--0--
5-6--6--6--0---4--x-x-4--------------------------0---4--x-x-4------------------
6-6--6--6--0-------------0--2--2--0--0--6--6--6--0-----------------------------

1------------------------------------------------------------------------------  
2--------------7------7------------------------------7------7------------------
3--------------5--x-x-5------------------------------5--x-x-5--5/(7)--7--5-----
4-6--6--6--0---4--x-x-4------------------------------4--x-x-4------------------
5-6--6--6--0---4--x-x-4------------------------------4--x-x-4------------------
6-6--6--6--0-------------0--2--2--0--0--6--6--6--0--------------------------0--

  -vocals come in

1-----------------------------------------------------------------------------  
2--------------7------7------------------------------7------7-----------------
3--------------5--x-x-5------------------------------5--x-x-5-----------------
4--------------4--x-x-4------------------------------4--x-x-4-----------------
5----------0---4--x-x-4--------------------------0---4--x-x-4-----------------
6-6--6--6--0-------------0--2--2--0--0--6--6--6--0-------------0--2--2--0--0--

1------------------------------------------------------------------------------
2--------------7------7------------------------------7------7------------------
3--------------5--x-x-5------------------------------5--x-x-5------------------
4--------------4--x-x-4------------------------------4--x-x-4--3/(5)--5--3--0--
5----------0---4--x-x-4--------------------------0---4--x-x-4------------------
6-6--6--6--0-------------0--2--2--0--0--6--6--6--0-----------------------------

1------------------------------------------------------------------------------
2--------------7------7------------------------------7------7------------------
3--------------5--x-x-5------------------------------5--x-x-5------------------
4--------------4--x-x-4------------------------------4--x-x-4--3/(5)--5--3--0--
5----------0---4--x-x-4--------------------------0---4--x-x-4------------------
6-6--6--6--0-------------0--2--2--0--0--6--6--6--0-----------------------------

1-----------------------------------------------------------------
2--------------7------7------------------------------7------7-----
3--------------5--x-x-5------------------------------5--x-x-5--x--
4--------------4--x-x-4------------------------------4--x-x-4--x--
5----------0---4--x-x-4--------------------------0---4--x-x-4--x--
6-6--6--6--0-------------0--2--2--0--0--6--6--6--0----------------

  chorus

1------------------------------------------------------------------------------
2-15-15-15-13---13-13-13-13-13-13-15-15-15-13---13-13-13-13-13-13-13-13-13-13--
3-13-13-13-13---13-13-13-13-13-13-13-13-13-13---13-13-13-13-13-13-13-13-13-13--
4-13-13-13-13---13-13-13-13-13-13-13-13-13-13---13-13-13-13-13-13-13-13-13-13--  
5------------------------------------------------------------------------------
6------------------------------------------------------------------------------  

  1X3 

  2nd verse

1----------------------------------------------------------------------------  
2--------------7------7------------------------------7------7----------------
3--------------5--x-x-5------------------------------5--x-x-5----------------
4-6--6--6--0---4--x-x-4------------------------------4--x-x-4----------------
5-6--6--6--0---4--x-x-4------------------------------4--x-x-4----------------
6-6--6--6--0-------------0--2--2--0--0--6--6--6--0-------------0--2/(5)---3--

1------------------------------------------------------------------------------
2--------------7------7------------------------------7------7------------------
3--------------5--x-x-5------------------------------5--x-x-5--5/(7)--7--5-----
4--------------4--x-x-4------------------------------4--x-x-4------------------
5--------------4--x-x-4------------------------------4--x-x-4------------------
6-6--6--6--0-------------0--2--2--0--0--6--6--6--0--------------------------0--

1-----------------------------------------------------------------------------  
2--------------7------7------------------------------7------7-----------------
3--------------5--x-x-5------------------------------5--x-x-5-----------------
4--------------4--x-x-4------------------------------4--x-x-4-----------------
5----------0---4--x-x-4------------------------------4--x-x-4-----------------
6-6--6--6--0-------------0--2--2--0--0--6--6--6--0-------------0--2--2--0--0--

1------------------------------------------------------------------------------
2--------------7------7------------------------------7------7------------------
3--------------5--x-x-5------------------------------5--x-x-5------------------
4--------------4--x-x-4------------------------------4--x-x-4--3/(5)--5--3--0--
5----------0---4--x-x-4--------------------------0---4--x-x-4------------------
6-6--6--6--0-------------0--2--2--0--0--6--6--6--0-----------------------------

1------------------------------------------------------------------------------
2--------------7------7------------------------------7------7------------------
3--------------5--x-x-5------------------------------5--x-x-5--5/(7)--7--5-----
4--------------4--x-x-4------------------------------4--x-x-4------------------
5--------------4--x-x-4------------------------------4--x-x-4------------------
6-6--6--6--0-------------0--2--2--0--0--6--6--6--0--------------------------0--

1-----------------------------------------------------------------
2--------------7------7------------------------------7------7-----
3--------------5--x-x-5------------------------------5--x-x-5--x--
4--------------4--x-x-4------------------------------4--x-x-4--x--
5----------0---4--x-x-4--------------------------0---4--x-x-4--x--
6-6--6--6--0-------------0--2--2--0--0--6--6--6--0----------------

  2nd chorus

1-10-10-10-8---8-8-8-8-8-8-10-10-10-8---8-8-8-8-8-8-8-8-8-8--
2-9--9--9--9---9-9-9-9-9-9-9--9--9--9---9-9-9-9-9-9-9-9-9-9--
3-7--7--7--8---8-8-8-8-8-8-7--7--7--8---8-8-8-8-8-8-8-8-8-8--
4-0--0--0--0---0-0-0-0-0-0-0--0--0--0---0-0-0-0-0-0-0-0-0-0--
5------------------------------------------------------------
6------------------------------------------------------------  1X3

  quiet part, a single guitar

1-10-10-10-8----------------
2-9--9--9--9----------------
3-7--7--7--8---8-8-8-8-8-8--
4-0--0--0--0---0-0-0-0-0-0--
5---------------------------
6---------------------------  1X3

  outro

1------------------------------------------------------------
2------------------------------------------------------------
3-------------------------7-------------------------------7--
4-6--6--6--0-----6--6--6--x-------6--6--6--0-----6--6--6--x--
5-6--6--6--0-----6--6--6--5-------6--6--6--0-----6--6--6--5--
6-6--6--6--0-----6--6--6----------6--6--6--0-----6--6--6-----  1X4

1-----------------------------------------------------------------------------  
2--------------7------7------------------------------7------7-----------------
3--------------5--x-x-5------------------------------5--x-x-5-----------------
4--------------4--x-x-4------------------------------4--x-x-4-----------------
5----------0---4--x-x-4--------------------------0---4--x-x-4-----------------
6-6--6--6--0-------------0--2--2--0--0--6--6--6--0-------------0--2--2--0--0--

1-----------------------------------------------------------------------------  
2--------------7------7------------------------------7------7-----------------
3--------------5--x-x-5------------------------------5--x-x-5-----------------
4--------------4--x-x-4------------------------------4--x-x-4-----------------
5----------0---4--x-x-4--------------------------0---4--x-x-4-----------------
6-6--6--6--0-------------0--2--2--0--0--6--6--6--0-------------0--2--2--0--0--

1----------------------------------------------------------------- 
2--------------6------6------------------6------6-----------------
3--------------5--x-x-5------------------5--x-x-5-----------------
4--------------4--x-x-4------------------4--x-x-4-----------------
5----------0---4--x-x-4--------------0---4--x-x-4--------------0--
6-6--6--6--0-------------0--6--6--6--0-------------0--6--6--6--0--

1--------------------------------------- 
2-6------6------------------6------6----
3-5--x-x-5------------------5--x-x-5----
4-4--x-x-4------------------4--x-x-4----
5-4--x-x-4--------------0---4--x-x-4-%--
6-----------0--6--6--6--0---------------
            

comments powered by Disqus
↑ Back to top | Prong Tabs for Home Rule. Lyrics for acoustic guitar and electric guitar. Tablatures and chords are parodies/interpretations of the original songs. You may use it for private study, scholarship, research or language learning purposes only