» » »

Prong, Freezer Burn Tabs (ver.1)

Artists:  A B C D E F G H I J K L M N O P Q R S T U V W X Y Z # 

Freezer Burn Tabs (ver.1)

Prong Tabs
 Rating:
3.4/5 (5 votes)
Freezer Burn lessons Tabs too difficult? Try these video lessons and learn fast
1
                Band:  Prong

Copyright (c)  (Spigot) (1988)
Version 1.0 - (03/05/06)



.  - palm mute           /  - slide up to
\  - slide down to       ~  - vibrato
h  - hammer on           b  - Bend
p  - pull off            Suffixes for bend
t  - tap                 f  - full bend    h - half bend
ph - pinched harmonic    q  - quarter bend t - tap bend
                         p  - pre bend
*  - see comment         ^  - Hold bend    r release bend
x  - Stuccatto           ~  - vibrato bend
,  - slight palm mute    () - ghost note, sustained note
"  - tremolo note        <> - harmonic

Tuning E A D G B E

 Intro / Main Riff


    [--PM--]    h h   h
|------------------------|
|------------------------|
|------------------------|
|-------------0-2-3p2-3--|
|-2---------3------------|
|-0-000-000--------------| Rpt 4 X


    PM  PM      h   h   
|------------------------|
|------------------------|
|------------------------|
|-5---5---5-3\2-3p2-3p2--|
|-3-333-3----------------|
|------------------------| Rpt 2 X 

 Rpt above riffs
 Rpt Main Riff 2 X

 Verse
   [-PM-]   [-PM-] [-PM-] [--PM--]
|---------------------------------|
|---------------------------------|
|---------------------------------|
|-7-77777-8-88888-3-33333---------|
|-5-55555-6-66666-1-11111-5\4-----|
|-------------------------3\2-222-|

   [-PM-]   [-PM-] [-PM-] 
|---------------------------------|
|---------------------------------|
|---------------------------------|
|-7-77777-5-55555/8-88888---------|
|-5-55555-3-33333/6-66666-6--6--6-|
|-------------------------4--4--4-|


   [-PM-]   [-PM-] [-PM-] [--PM--]
|---------------------------------|
|---------------------------------|
|---------------------------------|
|-7-77777-8-88888-3-33333---------|
|-5-55555-6-66666-1-11111-5\4-----|
|-------------------------3\2-222-|

   [-PM-]   [-PM-]            ph~~
|---------------------------------|
|---------------------------------|
|---------------------------------|
|-7-77777-5-55555/8--8--8-(8)-----|
|-5-55555-3-33333/6--6--6-(6)-----|
|-----------------------------6---|

 Chorus

    [--PM--]    h h   h
|------------------------|
|------------------------|
|------------------------|
|-------------0-2-3p2-3--|
|-2---------3------------|
|-0-000-000--------------| Rpt 4 X


    PM  PM      h   h   
|------------------------|
|------------------------|
|------------------------|
|-5---5---5-3\2-3p2-3p2--|
|-3-333-3----------------|
|------------------------| Rpt 2 X 

 Rpt above

 Rpt Main Riff 2 X
 Rpt Verse
 Rpt Chorus
 Rpt Verse

   [-PM-]   [-PM-]            
|------------------------------|
|------------------------------|
|------------------------------|
|-7-77777-5-55555/8----(8)-----|
|-5-55555-3-33333/6----(6)-----|
|------------------------------|

   [-PM-] [-PM-] [-PM-] [-PM-]
|----------------------------------------------|
|----------------------------------------------|
|----------------------------------------------|
|-4------4------3------3--------3-2-4-7\6/10\9-|
|-2-2222-2-2222-1-1111-1-1111-2-1-0-2-5\4/8-\7-|
|-----------------------------0----------------|

 Guitar 1
   [-PM-] [-PM-] [-PM-] [-PM-]
[----------------------------------------------|
[----------------------------------------------|
[----------------------------------------------|
[-4------4------3------3--------3-2-4-7\6/10\9-|
[-2-2222-2-2222-1-1111-1-1111-2-1-0-2-5\4/8-\7-|
[-----------------------------0----------------|
[ Guitar 2
[   [-PM-] h h  [-PM-] [-PM-]
[----------------------------------------------|
[----------------------------------------------|
[----------------------------------------------|
[-4-----0-1-2---3---------------3-2-4-7\6/10\9-|
[-2-2222------2-1-11114-5-6---2-1-0-2-5\4/8-\7-|
[---------------------------6-0----------------| Rpt 3 X

    [--PM--]    h h   h
|------------------------|
|------------------------|
|------------------------|
|-------------0-2-3p2-3--|
|-2---------3------------|
|-0-000-000--------------| Rpt 4 X
 
 Solo

    h     h     h     h    h    h
|--------------------------------------|
|--------------------------------------|
|-0-5p4p0-5p4p0-5p4p0-5p4p05p4p05p4-p--|
|--------------------------------------|
|--------------------------------------|
|--------------------------------------| Rpt

     h   h          h h  h h  h h h   h   h
|---------------------------------------------|
|---------------------------------------------|
|-/7-9p7-9-9b-(9b)-p7-9-12-11-9-7-9p7-9p7-9p7-|
|---------------------------------------------|
|---------------------------------------------|
|---------------------------------------------|

   ~~~~~~~~~~         t t t
|--------------------------------------------------------------------|
|--------------------------------------------------------------------|
|-<5>--harmonic noise-x-x-x-tap with pic up and then down the string-|
|--------------------------------------------------------------------|
|--------------------------------------------------------------------|
|--------------------------------------------------------------------|

       h      h      h      h      h      h
|-/15-18p-15-18p-15-18p-15-18p-15-18p-15-18p--|
|---------------------------------------------|
|---------------------------------------------|
|---------------------------------------------|
|---------------------------------------------|
|---------------------------------------------|

      h      h      h      h      ~~~~~~~~~~~~~~~~~~~~~~
|-18-20p-18-20p-18-20p-18-20p-18-18fb----18fb-18fb-18fb-18p15-|
|-------------------------------------------------------------|
|-------------------------------------------------------------|
|-------------------------------------------------------------|
|-------------------------------------------------------------|
|-------------------------------------------------------------|

                    h      h     h
|----15------------------------------------------------|
|-18----17-15-14---------------------------------------|
|----------------12-14p12-14p12-14p0-\trem dive--------|
|------------------------------------------------------|
|------------------------------------------------------|
|------------------------------------------------------|

 Backing for solo is chorus

 Rpt Verse

   [-PM-]   [-PM-]            
|---------------------------------|
|---------------------------------|
|---------------------------------|
|-7-77777-5-55555/8----(8)-----9\-|
|-5-55555-3-33333/6----(6)-----7\-|
|------------------------------0\-|



END
            
Submit corrections

comments powered by Disqus
↑ Back to top | Prong Tabs for Freezer Burn. Lyrics for acoustic guitar and electric guitar. 1 Tablatures and chords are parodies/interpretations of the original songs. You may use it for private study, scholarship, research or language learning purposes only