» » »

Face Value Bass tabs (ver.1)

Artists:  A B C D E F G H I J K L M N O P Q R S T U V W X Y Z # 

Face Value Bass tabs (ver.1)

Prong
Rating:
0/5 (0 votes)

Tabs too difficult? Try these video lessons and learn fast.
                this song is pretty easy, but its alot of fun to play.

intro

im not sure this is right but it is pretty close
G--------------------------------------------------
D--------------------------------------------------
A---3----------------------------------------------  
E----------5------8-----1--------------------------   X3

G------------------------------------------------------------------------
D------------------------------------------------------------------------
A-3---66--6--22--3---66--6--22--3---66-6--22---3--22--2--44--3-22--2--44-
E------------------------------------------------------------------------

G--------------------------------------------
D--------------------------------------------
A-3---66--6--22--3---66--6--22--3---66-6--22-
E--------------------------------------------


there is no bass during the verse, but when it gets to the chorus he plays 
something more like:

G---------------------------------------------------
D---------------------------------------------------
A--3--66-6---222------------------------------------
E---------------------------------------------------


and if any of you guys know a band that needs around longmont or boulder 
colorado, give them my email.
            
Tabs too difficult? Try these video lessons and learn fast.




comments powered by Disqus
↑ Back to top | Tablatures and chords are parodies/interpretations of the original songs. You may use it for private study, scholarship, research or language learning purposes only