» » »

Prong, Dark Signs Tabs (ver.1)

Artists:  A B C D E F G H I J K L M N O P Q R S T U V W X Y Z # 

Dark Signs Tabs (ver.1)

Prong Tabs
Rating:
0/5 (0 votes)
Hard to play? Try these video lessons and learn fast.
                Username: okregisterme

detune strings 1-5 one whole step from standard
detune string 6 two whole steps from standard

p - pull-off
(x)X(x) - 1st number indicates number of preceding staffs to repeat,
          2nd number indicates number of repeats
/// - strum in rhythm

  intro

1----------------------------------------------------
2----------------------------------------------------
3----------------------------------------------------
4-----------------------------------------3---3---3--
5-----------------------------------------3---3---3--
6-3p0-0-0-0-0-3p0-0-0-0-0-3p0-0-0-0-0-0-0-3---3---3--  1X3

  refrain

1-----------------------------------------------
2-----------------------------------------------
3-----------------------------------------------
4-0------------4------------0------------4------
5-0------------4------------0------------4------
6-0-///--------4-///--------0-///--------4-///--

1-----------------------------------------------
2-----------------------------------------------
3-----------------------------------------------
4-0------------4------------3------------6------
5-0------------4------------3------------6------
6-0-///--------4-///--------3-///--------6-///--  2X1

  verse

              .
1----------------
2----------------
3----------------
4-3--3--3--4--0--
5-3--3--3--4--0--
6-3--3--3--4--0--  1x7

1---------------------------
2----------------3-3-3-3-3--
3----------------5-5-5-5-5--
4-3--3--3--4--0-------------
5-3--3--3--4--0-------------
6-3--3--3--4--0-------------  1X3

              .
1----------------
2----------------
3----------------
4-3--3--3--4--0--
5-3--3--3--4--0--
6-3--3--3--4--0--  1x6

1--------------------------------
2--------------------------------
3--------------------------------
4-3--3--3--4--0--0--3---0--3--3--
5-3--3--3--4--0--0--3---0--3--3--
6-3--3--3--4--0--0--3---0--3--3--

  repeat refrain, verse, refrain, intro

  solo

1----------------------------------------
2----------------------------------------
3----------------------------------------
4----------------------------------------
5----------------------------------------
6-0--0--0--4-----4/(9)---10---9---10--7--  1X2

1-------------------------------
2-------------------------------
3----------2-----0--5--5--5--5--
4-3--3--3--3--------6--6--6--6--
5-------------------------------
6-------------------------------

  repeat refrain

  outro

              .
1----------------
2----------------
3----------------
4-3--3--3--4--0--
5-3--3--3--4--0--
6-3--3--3--4--0--  1x3

              .
1----------------
2----------------
3----------------
4-3--3--3--4--3--
5-3--3--3--4--3--
6-3--3--3--4--3--

              .
1----------------
2----------------
3----------------
4-3--3--3--4--0--
5-3--3--3--4--0--
6-3--3--3--4--0--

              .
1----------------
2----------------
3----------------
4-3--3--3--4--3--
5-3--3--3--4--3--
6-3--3--3--4--3--  1X2
            

comments powered by Disqus
↑ Back to top | Prong Tabs for Dark Signs. Lyrics for acoustic guitar and electric guitar. Tablatures and chords are parodies/interpretations of the original songs. You may use it for private study, scholarship, research or language learning purposes only