>
 >
Close The Door

Close The Door Guitar Tabs

Prong - Close The Door chords, tabs, tablatures, lyrics

Guitar lessons | Add/correct | Request | Top 50 tabs Artists:  A B C D E F G H I J K L M N O P Q R S T U V W X Y Z 0-9

Close The Door Guitar Tabs – Prong

CD, Sheet music, Poster

Do you like Close The Door? Share with your friends now
Tabs
Username: okregisterme

detune strings 1-5 one whole step from standard
detune string 6 two whole steps from standard

x - muted string
. - sound chord then immediately dampen
(x)X(x) - 1st number indicates number of preceding staffs to repeat,
          2nd number indicates number of repeats
p - pull-off
h - hammer-on
/ - slide up
(fret number) - sound the note by sliding into it, don't pick

  intro

1--------------------------------------------
2--------------------------------------------
3-7--------8--------6--------6---------6-----
4-x--------x--------x------------0--0-----0--
5-5--------6--------4------------------------
6--------------------------------------------

1-------------------0------------------------
2-------------------0------------------------
3-7--------8--------0------------------------
4-x--------x--------x------------------------
5-5--------6--------4------------------------
6--------------------------------------------

     .           .                 .
1-------------------------------------
2-------------------------------------
3-------------------------------------
4-0--3--------0--3-----0--0--3--3--1--
5-0--3--------0--3-----0--0--3--3--1--
6-0--3--------0--3-----0--0--3--3--1--  1X3

  verse

     .
1----------------------------------
2----------------------------------
3----------------------------------
4-0--3-----------------------------
5-0--3-----------------------------
6-0--3-----------------------------

1----------------------------------
2----------------------------------
3----------------------------------
4----------------------------------
5----------------------------------
6----------------------------------

     .           .        .
1----------------------------------
2----------------------------------
3----------------------------------
4-0--3--------0--3-----0--3--------
5-0--3--------0--3-----0--3--------
6-0--3--------0--3-----0--3--------

     .           .        .
1----------------------------------
2----------------------------------
3----------------------------------
4-0--3--------0--3-----0--3--------
5-0--3--------0--3-----0--3--------
6-0--3--------0--3-----0--3--------

     .
1-------------------------
2-------------------------
3-------------------------
4-0--3-----0--0--3--3--1--
5-0--3-----0--0--3--3--1--
6-0--3-----0--0--3--3--1--

  pre-chorus

1--------------------------------------------------------------------
2--------------------------------------------------------------------
3--------------------------------------------------------------------
4--------------------------------------------------------------------
5--------------------------------------------------------------------
6-3p1--1---0h1--1---3p1--1---0h1--1---3p1--1---0h1--1---3p1--1p0--0--

1----------------------------------------------------------------------------
2----------------------------------------------------------------------------
3----------------------------------------------------------------------------
4----------------------------------------------------------------------------
5-------------------------------------------------------3/(5)---5-5-5-5-5-5--
6-3p1--1---0h1--1---3p1--1---0h1--1---3p1--1---0h1--1------------------------  2X1

  chorus

1--------------------------------------------
2--------------------------------------------
3-7--------8--------6------------------------
4-x--------x--------x------------------------
5-5--------6--------4------------------------
6-------------------------------5-5-5-5-5-5--

1-------------------0------------------------
2-------------------0------------------------
3-7--------8--------0------------------------
4-x--------x--------x------------------------
5-5--------6--------4------------------------
6-------------------------------5-5-5-5-5-5--

1--------------------------------------------
2--------------------------------------------
3-7--------8--------6------------------------
4-x--------x--------x------------------------
5-5--------6--------4------------------------
6-------------------------------5-5-5-5-5-5--

1-------------------0------------------------
2-------------------0------------------------
3-7--------8--------0------------------------
4-x--------x--------x------------------------
5-5--------6--------4------------------------
6--------------------------------------------

  2nd verse

     .           .           .                 .
1-------------------------------------------------
2-------------------------------------------------
3-------------------------------------------------
4-0--3--------0--3--------0--3-----0--0--3--3--1--
5-0--3--------0--3--------0--3-----0--0--3--3--1--
6-0--3--------0--3--------0--3-----0--0--3--3--1--  1X1

     .           .                 .
1-------------------------------------
2-------------------------------------
3-------------------------------------
4-0--3--------0--3-----0--0--3--3--1--
5-0--3--------0--3-----0--0--3--3--1--
6-0--3--------0--3-----0--0--3--3--1--  1X1

     .           .
1-------------------------------------
2-------------------------------------
3-------------------------------------
4-0--3--------0--3-----0--0--3--3--1--
5-0--3--------0--3-----0--0--3--3--1--
6-0--3--------0--3-----0--0--3--3--1--

  2nd chorus - same

  2nd pre-chorus - same

  repeat intro

  3rd chorus

1--------------------------------------------
2--------------------------------------------
3-7--------8--------6------------------------
4-x--------x--------x------------------------
5-5--------6--------4------------------------
6-------------------------------5-5-5-5-5-5--

1-------------------0------------------------
2-------------------0------------------------
3-7--------8--------0------------------------
4-x--------x--------x------------------------
5-5--------6--------4------------------------
6--------------------------------------------

  end with

     .           .
1-------------------------------------
2-------------------------------------
3-------------------------------------
4-0--3--------0--3-----0--0--3--3--1--
5-0--3--------0--3-----0--0--3--3--1--
6-0--3--------0--3-----0--0--3--3--1--  1X3

     .
1-------
2-------
3-------
4-0--3--
5-0--3--
6-0--3--





Comments


Popular Prong tabs & chords
Beg To Differ 1 Tabs
Controller Tabs
Detached Intro Tabs
Face Value Tabs
Face Value 1 Tabs
Home Rule Tabs
Lost And Found Tabs
Proud Division Tabs
Prove You Wrong Tabs
Without Hope Tabs


Song lyrics



↑ Back to top | Tablatures and chords are parodies/interpretations of the original songs. You may use it for private study, scholarship, research or language learning purposes only
© 2014 AZChords.com Contact us | Privacy policy | DMCA | Add/correct tabs | Request tabs | Top 50 tabs