» » »

Prong, Caprice Tabs (ver.1)

Artists:  A B C D E F G H I J K L M N O P Q R S T U V W X Y Z # 

Caprice Tabs (ver.1)

Prong Tabs
Rating:
0/5 (0 votes)
Caprice lessons Tabs too difficult? Try these video lessons and learn fast
                Username: okregisterme

detune strings 1-5 one whole step from standard
detune string 6 two whole steps from standard

p - pull-off
\ - slide down

  intro/verse

1--------------------------------------
2--------------------------------------
3--------------------------------------
4-0---0--0--8p0--0--7p0--0--5p0--4--5--
5-0---0--0--8p0--0--7p0--0--5p0--4--5--
6-0---0--0--8p0--0--7p0--0--5p0--4--5--

  chorus

1-----------------------------------------------------------------------
2-----------------------------------------------------------------------
3-----------------------------------------------------------------------
4-12--12--12--12-12\---6-6-6-6-6-6-6-10--10--10--10-10\--4-4-4-4-4-4-4--
5-12--12--12--12-12\---6-6-6-6-6-6-6-10--10--10--10-10\--4-4-4-4-4-4-4--
6-12--12--12--12-12\---6-6-6-6-6-6-6-10--10--10--10-10\--4-4-4-4-4-4-4--
            

comments powered by Disqus
↑ Back to top | Prong Tabs for Caprice. Lyrics for acoustic guitar and electric guitar. Tablatures and chords are parodies/interpretations of the original songs. You may use it for private study, scholarship, research or language learning purposes only