» » »

Prong, Avenue Of The Finest Tabs (ver.1)

Artists:  A B C D E F G H I J K L M N O P Q R S T U V W X Y Z # 

Avenue Of The Finest Tabs (ver.1)

Prong Tabs
 Rating:
4/5 (4 votes)
Avenue Of The Finest lessons Tabs too difficult? Try these video lessons and learn fast
                Username: okregisterme

detune strings 1-5 one whole step
detune string 6 two whole steps

p - pull-off
% - rest
m - palm mute
g - gradual bend
s - semi-tone bend
ph - pinch harmonic

  intro

1-------------------------------------------------------------
2-------------------------------------------------------------
3-------------------------------------------------------------
4-0--0-0-3p0-0-6--6-6-6-8--8-8---0-0-0-3p0-0-6--6-6-6-8--8-8--  
5-0--0-0-3p0-0-6--6-6-6-6--6-6-%-0-0-0-3p0-0-6--6-6-6-6--6-6--  
6-0--0-0-3p0-0-6--6-6-6-6--6-6---0-0-0-3p0-0-6--6-6-6-6--6-6--  
  
1-----------------------------------------------------------------
2-----------------------------------------------------------------
3-----------------------------------------------------------------
4-0--0-0-3p0-0-6--6-6-6-8--8-8---10-10-9-10-9-10-0---12-12-12-12--  
5-0--0-0-3p0-0-6--6-6-6-6--6-6-%-10-10-9-10-9-10-0---11-11-11-11-- 
6-0--0-0-3p0-0-6--6-6-6-6--6-6---10-10-9-10-9-10-0---0--0--0--0---  

1-------------------------------------------------------------
2-------------------------------------------------------------
3-------------------------------------------------------------
4-0--0-0-3p0-0-6--6-6-6-8--8-8---0-0-0-3p0-0-6--6-6-6-8--8-8--  
5-0--0-0-3p0-0-6--6-6-6-6--6-6-%-0-0-0-3p0-0-6--6-6-6-6--6-6--  
6-0--0-0-3p0-0-6--6-6-6-6--6-6---0-0-0-3p0-0-6--6-6-6-6--6-6--  
  
1-----------------------------------------------------------------
2-----------------------------------------------------------------
3-----------------------------------------------------------------
4-0--0-0-3p0-0-6--6-6-6-8--8-8---10-10-9-10-9-10-0---12-12-12-12--  
5-0--0-0-3p0-0-6--6-6-6-6--6-6-%-10-10-9-10-9-10-0---11-11-11-11-- 
6-0--0-0-3p0-0-6--6-6-6-6--6-6---10-10-9-10-9-10-0---0--0--0--0---

1---------------------
2---------------------
3---------------------
4-10-10-9-10-10---12--  
5-10-10-9-10-10---11--
6-10-10-9-10-10-0-0---  

  verse - play a slide from the 15th fret on the 
          6th string, then play this

  m m m m m m m m m m m m        m m m m m m m m m m m m 
1-----------------------------------------------------------
2-----------------------------------------------------------
3-----------------------------------------------------------
4-0-4-3-0-4-3-0-4-3-0-3-0-2--3---0-4-3-0-4-3-0-4-3-0-3-0-3--  
5-0-4-3-0-4-3-0-4-3-0-3-0-2--3---0-4-3-0-4-3-0-4-3-0-3-0-3--  
6-0-4-3-0-4-3-0-4-3-0-3-0-2--3---0-4-3-0-4-3-0-4-3-0-3-0-3--  

  m m m m m m m m m m m m        m m m m m m m m m m m m ph
1-------------------------------------------------------------
2-------------------------------------------------------------
3-------------------------------------------------------------
4-0-4-3-0-4-3-0-4-3-0-3-0-2--3---0-4-3-0-4-3-0-4-3-0-3-0-5gs--  
5-0-4-3-0-4-3-0-4-3-0-3-0-2--3---0-4-3-0-4-3-0-4-3-0-3-0------  
6-0-4-3-0-4-3-0-4-3-0-3-0-2--3---0-4-3-0-4-3-0-4-3-0-3-0------

  m m   m m m m m         m m   m m m m m 
1----------------------------------------------
2----------------------------------------------
3----------------------------------------------
4-0-0---0-0-0-0-0---2--3--0-0---0-0-0-0-0---3--   
5-0-0-%-0-0-0-0-0-%-2--3--0-0-%-0-0-0-0-0-%-3--  
6-0-0---0-0-0-0-0---2--3--0-0---0-0-0-0-0---3--    

  m m   m m m m m         m m   m m m m m 
1------------------------------------------------
2------------------------------------------------
3------------------------------------------------
4-0-0---0-0-0-0-0---2--3--0-0---0-0-0-0-0---5gs--   
5-0-0-%-0-0-0-0-0-%-2--3--0-0-%-0-0-0-0-0-%------  
6-0-0---0-0-0-0-0---2--3--0-0---0-0-0-0-0--------

  chorus - just like the intro  

  2nd verse 

  m m m m m m m m m m m m        m m m m m m m m m m m m 
1-----------------------------------------------------------
2-----------------------------------------------------------
3-----------------------------------------------------------
4-0-4-3-0-4-3-0-4-3-0-3-0-2--3---0-4-3-0-4-3-0-4-3-0-3-0-3--  
5-0-4-3-0-4-3-0-4-3-0-3-0-2--3---0-4-3-0-4-3-0-4-3-0-3-0-3--  
6-0-4-3-0-4-3-0-4-3-0-3-0-2--3---0-4-3-0-4-3-0-4-3-0-3-0-3--  

  m m m m m m m m m m m m        m m m m m m m m m m m m ph
1-------------------------------------------------------------
2-------------------------------------------------------------
3--------------------------------------------------------5gs--
4-0-4-3-0-4-3-0-4-3-0-3-0-2--3---0-4-3-0-4-3-0-4-3-0-3-0------  
5-0-4-3-0-4-3-0-4-3-0-3-0-2--3---0-4-3-0-4-3-0-4-3-0-3-0------  
6-0-4-3-0-4-3-0-4-3-0-3-0-2--3---0-4-3-0-4-3-0-4-3-0-3-0------

  repeat chorus

  bridge

  m m m m m m m m m m m m m m m m   m m   m m   m m   m m 
1------------------------------------------------------------
2------------------------------------------------------------
3---------------------------------7-----7-----7-----5-----5--  
4---------------------------------7-----7-----7-----5-----5--  
5-0-6-5-0-6-5-0-6-5-0-6-5-0-6-5-0-5-----5-----5-----3-----3--  
6-----------------------------------0-0---0-0---0-0---0-0----  

  3rd verse

  m m m m m m m m m m m m        m m m m m m m m m m m m 
1-----------------------------------------------------------
2-----------------------------------------------------------
3-----------------------------------------------------------
4-------------------------2--3---------------------------3--  
5-------------------------2--3---------------------------3--  
6-0-4-3-0-4-3-0-4-3-0-3-0-2--3---0-4-3-0-4-3-0-4-3-0-3-0-3--  

  m m m m m m m m m m m m        m m m m m m m m m m m m ph
1-------------------------------------------------------------
2-------------------------------------------------------------
3--------------------------------------------------------5gs--
4-------------------------2--3--------------------------------  
5-------------------------2--3--------------------------------  
6-0-4-3-0-4-3-0-4-3-0-3-0-2--3---0-4-3-0-4-3-0-4-3-0-3-0------ 

  m m m m m m m m m m m m        m m m m m m m m m m m m 
1-----------------------------------------------------------
2-----------------------------------------------------------
3-----------------------------------------------------------
4-0-4-3-0-4-3-0-4-3-0-3-0-2--3---0-4-3-0-4-3-0-4-3-0-3-0-3--  
5-0-4-3-0-4-3-0-4-3-0-3-0-2--3---0-4-3-0-4-3-0-4-3-0-3-0-3--  
6-0-4-3-0-4-3-0-4-3-0-3-0-2--3---0-4-3-0-4-3-0-4-3-0-3-0-3--  

  m m m m m m m m m m m m        m m m m m m m m m m m m 
1-----------------------------------------------------------
2-----------------------------------------------------------
3-----------------------------------------------------------
4-0-4-3-0-4-3-0-4-3-0-3-0-2--3---0-4-3-0-4-3-0-4-3-0-3-0-3--  
5-0-4-3-0-4-3-0-4-3-0-3-0-2--3---0-4-3-0-4-3-0-4-3-0-3-0-3--  
6-0-4-3-0-4-3-0-4-3-0-3-0-2--3---0-4-3-0-4-3-0-4-3-0-3-0-3--

  3rd chorus 

1-------------------------------------------------------------
2-------------------------------------------------------------
3-------------------------------------------------------------
4-0--0-0-3p0-0-6--6-6-6-8--8-8---0-0-0-3p0-0-6--6-6-6-8--8-8--  
5-0--0-0-3p0-0-6--6-6-6-6--6-6-%-0-0-0-3p0-0-6--6-6-6-6--6-6--  
6-0--0-0-3p0-0-6--6-6-6-6--6-6---0-0-0-3p0-0-6--6-6-6-6--6-6--

1-------------------------------------------------------------
2-------------------------------------------------------------
3-------------------------------------------------------------
4-0--0-0-3p0-0-6--6-6-6-8--8-8---0-0-0-3p0-0-6--6-6-6-8--8-8--  
5-0--0-0-3p0-0-6--6-6-6-6--6-6-%-0-0-0-3p0-0-6--6-6-6-6--6-6--  
6-0--0-0-3p0-0-6--6-6-6-6--6-6---0-0-0-3p0-0-6--6-6-6-6--6-6--  
  
1-----------------------------------------------------------------
2-----------------------------------------------------------------
3-----------------------------------------------------------------
4-0--0-0-3p0-0-6--6-6-6-8--8-8---10-10-9-10-9-10-0---12-12-12-12--  
5-0--0-0-3p0-0-6--6-6-6-6--6-6-%-10-10-9-10-9-10-0---11-11-11-11-- 
6-0--0-0-3p0-0-6--6-6-6-6--6-6---10-10-9-10-9-10-0---0--0--0--0---  

1-------------------------------------------------------------
2-------------------------------------------------------------
3-------------------------------------------------------------
4-0--0-0-3p0-0-6--6-6-6-8--8-8---0-0-0-3p0-0-6--6-6-6-8--8-8--  
5-0--0-0-3p0-0-6--6-6-6-6--6-6-%-0-0-0-3p0-0-6--6-6-6-6--6-6--  
6-0--0-0-3p0-0-6--6-6-6-6--6-6---0-0-0-3p0-0-6--6-6-6-6--6-6--  
  
1-----------------------------------------------------------------
2-----------------------------------------------------------------
3-----------------------------------------------------------------
4-0--0-0-3p0-0-6--6-6-6-8--8-8---10-10-9-10-9-10-0---12-12-12-12--  
5-0--0-0-3p0-0-6--6-6-6-6--6-6-%-10-10-9-10-9-10-0---11-11-11-11-- 
6-0--0-0-3p0-0-6--6-6-6-6--6-6---10-10-9-10-9-10-0---0--0--0--0---

1---------------------
2---------------------
3---------------------
4-10-10-9-10-10---12--  
5-10-10-9-10-10---11--
6-10-10-9-10-10-0-0---
            
Submit corrections

comments powered by Disqus
↑ Back to top | Prong Tabs for Avenue Of The Finest. Lyrics for acoustic guitar and electric guitar. Tablatures and chords are parodies/interpretations of the original songs. You may use it for private study, scholarship, research or language learning purposes only