>
 >
Another Wordly Device

Another Wordly Device Guitar Tabs

Prong - Another Wordly Device chords, tabs, tablatures, lyrics

Guitar lessons | Add/correct | Request | Top 50 tabs Artists:  A B C D E F G H I J K L M N O P Q R S T U V W X Y Z 0-9

Another Wordly Device Guitar Tabs – Prong

CD, Sheet music, Poster

Do you like Another Wordly Device? Share with your friends now
Tabs
Username: okregisterme

detune string 6 one whole step                              

% - rest
/ - slide up
h - hammer-on
\ - slide down
f - full-tone bend

     intro 

1-------------------------------------------------------------------
2-------------------------------------------------------------------
3-------------------------------------------------------------------
4-2---2---2/(3)---2----2---------2----2---2/(3)---2----2---6\(5)-0--
5-2-%-2-%-2/(3)---2----2-------1-2----2---2/(3)---2----2---6\(5)-0--
6-2---2---2/(3)-0-2--0-2-0-2h3---2--0-2-0-2/(3)-0-2--0-2-0-6\(5)-0--

1-------------------------------------------------------------------
2-------------------------------------------------------------------
3-------------------------------------------------------------------
4-2---2---2/(3)---2----2---------2----2---2/(3)---2----2---2\(3)-3--
5-2-%-2-%-2/(3)---2----2-------1-2----2---2/(3)---2----2---2\(3)-3--
6-2---2---2/(3)-0-2--0-2-0-2h3---2--0-2-0-2/(3)-0-2--0-2-0-2\(3)-3--

1-------------------------------------------------------------------
2-------------------------------------------------------------------
3-------------------------------------------------------------------
4-4---4---4/(5)---4----4---------4----4---4/(5)---4----4---8\(7)----
5-4-%-4-%-4/(5)---4----4---------4----4---4/(5)---4----4---8\(7)----
6-4---4---4/(5)-0-4--0-4-0-5h7h8-4--0-4-0-4/(5)-0-4--0-4-0-8\(7)-0--

                                                p p
1------------------------------------------------------------
2------------------------------------------------------------
3------------------------------------------------------------
4-4---4---4/(5)---4----4---------4----4---4/(5)-----8-----7--
5-4-%-4-%-4/(5)---4----4---------4----4---4/(5)-----8-----7--
6-4---4---4/(5)-0-4--0-4-0-5h7h8-4--0-4-0-4/(5)-0-0-8-----7--  

1-------------------------------------------------------------------
2-------------------------------------------------------------------
3-------------------------------------------------------------------
4-4---4---4/(5)---4----4---------4----4---4/(5)---4----4---8\(7)----
5-4-%-4-%-4/(5)---4----4---------4----4---4/(5)---4----4---8\(7)----
6-4---4---4/(5)-0-4--0-4-0-5h7h8-4--0-4-0-4/(5)-0-4--0-4-0-8\(7)-0--

                                                p p
1---------------------------------------------------------------------------
2---------------------------------------------------------------------------
3---------------------------------------------------------------------------
4-4---4---4/(5)---4----4---------4----4---4/(5)-----7/(8)--7/(8)--7/(8)--0--
5-4-%-4-%-4/(5)---4----4---------4----4---4/(5)-----7/(8)--7/(8)--7/(8)--0--
6-4---4---4/(5)-0-4--0-4-0-5h7h8-4--0-4-0-4/(5)-0-0-7/(8)--7/(8)--7/(8)--0--       

  fill 1

1--------------------------
2--------------------------
3-11-11-11-11-11-11-11-11-- 
4--------------------------
5--------------------------
6-------------------------- 

  fill 2    

1-----
2-3---
3-5f--
4-----
5-----
6-----

  verse   

1----------------------------------------------
2----------------------------------------------
3----------------------------------------------
4-0-2---0-2-0-2/(3)------7/(8)--0--7/(8)--0----
5-0-2---0-2-0-2/(3)------7/(8)--0--7/(8)--0-%--
6-0-2---0-2-0-2/(3)--0-0-7/(8)--0--7/(8)--0----

1-----------------------------------------------------
2-----------------------------------------------------
3-----------------------------------------------------
4-7/(8)--0--7/(8)--0---7/(8)--0--7/(8)--0---7/(8)--0--
5-7/(8)--0--7/(8)--0-%-7/(8)--0--7/(8)--0-%-7/(8)--0--
6-7/(8)--0--7/(8)--0---7/(8)--0--7/(8)--0---7/(8)--0--  2X1

1-------------------------
2-------------------------
3-------------------------
4-0-2---0-2-0-2/(3)-------
5-0-2---0-2-0-2/(3)-------
6-0-2---0-2-0-2/(3)--0-0--

  chorus

1-------------------------------------------------------------------
2-------------------------------------------------------------------
3-------------------------------------------------------------------
4-4---4---4/(5)---4----4---------4----4---4/(5)---4----4---8\(7)----
5-4-%-4-%-4/(5)---4----4---------4----4---4/(5)---4----4---8\(7)----
6-4---4---4/(5)-0-4--0-4-0-5h7h8-4--0-4-0-4/(5)-0-4--0-4-0-8\(7)-0--

                                                p p
1------------------------------------------------------------
2------------------------------------------------------------
3------------------------------------------------------------
4-4---4---4/(5)---4----4---------4----4---4/(5)-----8-----7--
5-4-%-4-%-4/(5)---4----4---------4----4---4/(5)-----8-----7--
6-4---4---4/(5)-0-4--0-4-0-5h7h8-4--0-4-0-4/(5)-0-0-8-----7--

1-------------------------------------------------------------------
2-------------------------------------------------------------------
3-------------------------------------------------------------------
4-4---4---4/(5)---4----4---------4----4---4/(5)---4----4---8\(7)----
5-4-%-4-%-4/(5)---4----4---------4----4---4/(5)---4----4---8\(7)----
6-4---4---4/(5)-0-4--0-4-0-5h7h8-4--0-4-0-4/(5)-0-4--0-4-0-8\(7)-0--

                                                p p
1------------------------------------------------------------------------
2------------------------------------------------------------------------
3------------------------------------------------------------------------
4-4---4---4/(5)---4----4---------4----4---4/(5)-----7/(8)--7/(8)--7/(8)--
5-4-%-4-%-4/(5)---4----4---------4----4---4/(5)-----7/(8)--7/(8)--7/(8)--
6-4---4---4/(5)-0-4--0-4-0-5h7h8-4--0-4-0-4/(5)-0-0-7/(8)--7/(8)--7/(8)--

  2nd verse

1----------------------------------------------------------
2----------------------------------------------------------
3----------------------------------------------------------
4-7/(8)--0---7/(8)--0---0---7/(8)--0---7/(8)--0---0---0----
5-7/(8)--0-%-7/(8)--0-%-0-%-7/(8)--0-%-7/(8)--0-%-0-%-0-%--
6-7/(8)--0---7/(8)--0---0---7/(8)--0---7/(8)--0---0---0----

1------------------------
2------------------------
3------------------------
4-7/(8)--0---7/(8)--0----
5-7/(8)--0-%-7/(8)--0-%--
6-7/(8)--0---7/(8)--0----  1X2

                                p p
1------------------------------------
2------------------------------------
3------------------------------------
4-7/(8)--0---0-2---0-2-0-2/(3)-------
5-7/(8)--0-%-0-2---0-2-0-2/(3)-------
6-7/(8)--0---0-2---0-2-0-2/(3)--0-0--  2X2

  2nd chorus - same as first, and play this chord at the end and let ring:

1----
2----
3----
4-0--
5-0--
6-0--

  solo rhythm

1---------------------------------
2---------------------------------
3---------------------------------
4-2---2---2/(3)---2----2----------
5-2-%-2-%-2/(3)---2----2-------1--
6-2---2---2/(3)-0-2--0-2-0-2h3----  1X5

1-------------------------------------------------------------------
2-------------------------------------------------------------------
3-------------------------------------------------------------------
4-2---2---2/(3)---2----2---------2----2---2/(3)---2----2---2\(3)-3--
5-2-%-2-%-2/(3)---2----2-------1-2----2---2/(3)---2----2---2\(3)-3--
6-2---2---2/(3)-0-2--0-2-0-2h3---2--0-2-0-2/(3)-0-2--0-2-0-2\(3)-3--

1-------------------------------------------------------------------
2-------------------------------------------------------------------
3-------------------------------------------------------------------
4-4---4---4/(5)---4----4---------4----4---4/(5)---4----4---8\(7)----
5-4-%-4-%-4/(5)---4----4---------4----4---4/(5)---4----4---8\(7)----
6-4---4---4/(5)-0-4--0-4-0-5h7h8-4--0-4-0-4/(5)-0-4--0-4-0-8\(7)-0--

                                                p p
1------------------------------------------------------------
2------------------------------------------------------------
3------------------------------------------------------------
4-4---4---4/(5)---4----4---------4----4---4/(5)-----8-----7--
5-4-%-4-%-4/(5)---4----4---------4----4---4/(5)-----8-----7--
6-4---4---4/(5)-0-4--0-4-0-5h7h8-4--0-4-0-4/(5)-0-0-8-----7--  2X1

  3rd chorus - same as first

  outro

1----------------------------------------------------------
2----------------------------------------------------------
3----------------------------------------------------------
4-7/(8)--0---7/(8)--0---0---7/(8)--0---7/(8)--0---0---0----
5-7/(8)--0-%-7/(8)--0-%-0-%-7/(8)--0-%-7/(8)--0-%-0-%-0-%--
6-7/(8)--0---7/(8)--0---0---7/(8)--0---7/(8)--0---0---0----  1X1

1------------------------
2------------------------
3------------------------
4-7/(8)--0---7/(8)--0----
5-7/(8)--0-%-7/(8)--0-%--
6-7/(8)--0---7/(8)--0----  1X6

1--------------------------------
2--------------------------------
3--------------------------------
4-7/(8)--0---7/(8)--0---0---0----
5-7/(8)--0-%-7/(8)--0-%-0-%-0-%--
6-7/(8)--0---7/(8)--0---0---0----





Comments


Popular Prong tabs & chords
Caprice Tabs
Home Rule Tabs
Innocence Gone Tabs
Lost And Found Tabs
Slicing Tabs
Snap Your Fingers Tabs
Sublime Tabs
Test Tabs
Third From The Sun Tabs
Unfortunately Tabs


Song lyrics



↑ Back to top | Tablatures and chords are parodies/interpretations of the original songs. You may use it for private study, scholarship, research or language learning purposes only
© 2014 AZChords.com Contact us | Privacy policy | DMCA | Add/correct tabs | Request tabs | Top 50 tabs