array
(
    
'twoglasseyes' => 'twoglasseyes'
    'project86' 
=> 'project86'
)
Two Glass Eyes Tabs (ver. 1) by Project 86 @ AZ CHORDS.COM
» » »

Two Glass Eyes Tabs (ver.1)

Artists:  A B C D E F G H I J K L M N O P Q R S T U V W X Y Z # 

Two Glass Eyes Tabs (ver.1)

Project 86
Rating:
0/5 (0 votes)

Hard to play? Try these video lessons and learn fast.
                Band: Project 86



Intro:
e|-------------------------------------------------------------------|
b|-------------------------------------------------------------------|
g|-------------------------------------------------------------------|
d|-------------------------------------------------------------------|
a|-------------------------------------------------------------------|
D|-1~~--0~~--3~~-0~~---6~~~------1~~--0~~--3~~-0~~-----6~~~-5~~-0~~--|

e|-------------------------------------------------------------------|
b|-------------------------------------------------------------------|
g|-------------------------------------------------------------------|
d|-------------------------------------------------------------------|
a|-------------------------------------------------------------------|
D|-1~~--0~~--3~~-0~~---6~~~------1~~--0~~--3~~-0~~-----0~~~----------|


e|-----------------------------------------------------------|
b|-3~~~~~~~------------------3~~~~~~-------------------------|
g|-2~~~~~~~------------------2~~~~~~-------------------------|
d|-0~~~~~~~---66-6-6-6-------0~~~~~~----6--5--8--7-----------|
a|-0~~~~~~~---44-4-4-4-------0~~~~~~----4--3--6--5-----------|
D|-0~~~~~~~------------------0~~~~~~----------6--5-----------|

Verse:
e|-------------------------------------------|
b|-------------------------------------------|
g|-------------------------------------------|----------
d|----7-------8-------5-------6-6-6-6--------|
a|----5-------6-------3-------4-4-4-4--------|
D|-0-------0-------0-------0-----------------|
                                                       X2
e|-------------------------------------------|
b|-------------------------------------------|
g|-------------------------------------------|
d|----7-------8-------5-------6--5--8--7-----|----------
a|----5-------6-------3-------4--3--6--5-----|
D|-0-------0-------0-------0-----------------|


e|-------|
b|-------|
g|-------|
d|---0---|
a|---0---|
D|---0---|

Chorus 1:
e|---------------------------------------------------------|
b|---------------------------------------------------------|
g|---------------------------------------------------------|--------|
d|--7--5--7--8----7--5--7--8~~---/13-13-13--13-8-8-8-------|        |
a|--5--3--5--6----5--3--5--6~~---/11-11-11--11-6-6-6-------|        |
D|---------------------------------------------------------|        |
                                                                    | X2
e|---------------------------------------------------------|        |
b|---------------------------------------------------------|        |
g|---------------------------------------------------------|        |
d|--7--5--7--8----7--5--7--8~~---/13-13-13--13-12-12-12----|--------|
a|--5--3--5--6----5--3--5--6~~---/11-11-11--11-10-10-10----|
D|---------------------------------------------------------|

Post-Chorus:
e|-----------------------------------------------------------|
b|-3~~~~~~~------------------3~~~~~~-------------------------|
g|-2~~~~~~~------------------2~~~~~~-------------------------|
d|-0~~~~~~~---66-6-6-6-------0~~~~~~----6--5--8--7-----------|
a|-0~~~~~~~---44-4-4-4-------0~~~~~~----4--3--6--5-----------|
D|-0~~~~~~~------------------0~~~~~~----------6--5-----------|

Verse 2 (same as 1st)

Chorus 2 (same as 1st)

Bridge 1:
e|-------------------------------------------------------------------|
b|-------------------------------------------------------------------|
g|-------------------------------------------------------------------|
d|-------------------------------------------------------------------|
a|-------------------------------------------------------------------|
D|-1~~--0~~--3~~-0~~---6~~~------1~~--0~~--3~~-0~~-----6~~~-5~~-0~~--|

e|-------------------------------------------------------------------|
b|-------------------------------------------------------------------|
g|-------------------------------------------------------------------|
d|-------------------------------------------------------------------|
a|-------------------------------------------------------------------|
D|-1~~--0~~--3~~-0~~---6~~~------1~~--0~~--3~~-0~~-----/11v~~~-------|

Bridge 2:
e|----------------------------------------------------------------|
b|----------------------------------------------------------------|
g|----------------------------------------------------------------|---|
d|---7-7-7777---77-7-7-7-7------77-7-7-7-7----6---6---6---6-------|   |
a|---5-5-5555---55-5-5-5-5------55-5-5-5-5----4---4---4---4-------|   |
D|-0--------------------------------------------------------------|   |
                               Plays together                         |
e|--------------------------------------------10--12--13--10------|   |
b|----6--5--3------6-----5----------6--5--3-----------------------|   |
g|-7------------7-----7----------7--------------------------------|   |
d|----------------------------------------------------------------|===
a|----------------------------------------------------------------|
D|----------------------------------------------------------------|


e|----------------------------------------------------------------|
b|----------------------------------------------------------------|
g|----------------------------------------------------------------|---|
d|---7-7-7777---77-7-7-7-7------77-7-7-7-7----6---5---8---7-------|   |
a|---5-5-5555---55-5-5-5-5------55-5-5-5-5----4---3---6---5-------|   |
D|-0--------------------------------------------------------------|   |
                               Plays together                         |
e|--------------------------------------------10--12--13--10------|   |
b|----6--5--3------6-----5----------6--5--3-----------------------|   |
g|-7------------7-----7----------7--------------------------------|   |
d|----------------------------------------------------------------|===
a|----------------------------------------------------------------|
D|----------------------------------------------------------------|

NOTE: This bend happens when the 3rd chorus starts playing
after Bridge 2.

e|--10b-----------------------------------|
b|----------------------------------------|
g|----------------------------------------|
d|----------------------------------------|
a|----------------------------------------|
D|----------------------------------------|

Chorus 3 (Same as other 2)

Outro:
e|-------------------------------------------------------------------|
b|-------------------------------------------------------------------|
g|-------------------------------------------------------------------|
d|-------------------------------------------------------------------|
a|-------------------------------------------------------------------|
D|-1~~--0~~--3~~-0~~---6~~~------1~~--0~~--3~~-0~~-----6~~~-5~~-0~~--|

e|-------------------------------------------------------------------|
b|-------------------------------------------------------------------|
g|-------------------------------------------------------------------|
d|-------------------------------------------------------------------|
a|-------------------------------------------------------------------|
D|-1~~--0~~--3~~-0~~---6~~~------1~~--0~~--3~~-0~~-----/11v~~~-------|

Outro 2:
e|-----------------------------------------------------------|
b|-----------------------------------------------------------|
g|-----------------------------------------------------------|
d|---77-7-7-7-7---77-7-7-7-7---77-7-7-7-7---66-6-6-6-6-------|
a|---55-5-5-5-5---55-5-5-5-5---55-5-5-5-5---44-4-4-4-4-------|
D|-0---------------------------------------------------------|

e|-----------------------------------------------------------|
b|-----------------------------------------------------------|
g|-----------------------------------------------------------|
d|---77-7-7-7-7---77-7-7-7-7---77-7-7-7-7---6--5--8--7---0---|
a|---55-5-5-5-5---55-5-5-5-5---55-5-5-5-5---4--3--6--5---0---|
D|-0-----------------------------------------------------0---|


If you would like an album tab for Picket Fence Cartel please send me a message or 
post a comment. The CD is very simple so Ill probably make one anyways, but I want 
to know if it is worth it. I would like AT LEAST 2 people who want one. I pretty 
much have most of the songs already figure out anyways. 
            
Hard to play? Try these video lessons and learn fast. | Correct




comments powered by Disqus
↑ Back to top | Tablatures and chords are parodies/interpretations of the original songs. You may use it for private study, scholarship, research or language learning purposes only