» » »

Project 86, Spy Hunter Bass tabs (ver.1)

Artists:  A B C D E F G H I J K L M N O P Q R S T U V W X Y Z # 

Spy Hunter Bass tabs (ver.1)

Project 86 Tabs
Rating:
0/5 (0 votes)
Spy Hunter lessons Tabs too difficult? Try these video lessons and learn fast
                Well, this has gotta be my favorite Project 86 song to play.  I seen a tab that looks
similar on ChristianGuitar.ws, but there are some key differences between it and mine
and, well, you could hear the difference.  Hope you like it.

Tuning: Drop-D (DADG)
Key: * Let Note Ring :: \ Slide Down Neck :: / Slide Up Neck

Intro pt.1 1x:
G|------------
D|------------
A|------------
D|-0*---6-6-6-

Intro pt.2 4x:
G|------------------------------
D|------------------------------
A|------------------------------
D|-0-0-6-0-0-6-5-0-3--0-2--0-3--

Stop when Andrew says: "One last disguise" and then go straight into:

Verse 4x:
G|------------------------------------------------------------
D|------------------------------------------------------------
A|------------------------------------------------------------
D|-0-0-6-0-0-6-5-0-3--0-2--0-3-2-0-0-6-0-0-6-5-0-3--0-2--0-3--

Pre-Chorus 2x:
G|---------------------------------
D|---------------------------------
A|---------------------------------
D|-0-2-2-3-3-6-6-6-5-5-5-5-6-6-6-6-

Lead-In To Chorus 1x:
G|-----------------
D|-----------------
A|-----------------
D|-8-7-0-3-2-0-5-6-

Chorus pt.1 1x:
G|-------------------------------------------------------
D|-------------------------------------------------------
A|-------------------------------------------------------
D|-0-0-0-------0-0-0-------0-0-0--------0-0-0-----3\12/3-

Chorus pt.2 1x:
G|-------------------------------------------------------
D|-------------------------------------------------------
A|-------------------------------------------------------
D|-0-0-0-------0-0-0-------0-0-0-------0-0-0--------12/3-

Verse 6x:
G|------------------------------------------------------------
D|------------------------------------------------------------
A|------------------------------------------------------------
D|-0-0-6-0-0-6-5-0-3--0-2--0-3-2-0-0-6-0-0-6-5-0-3--0-2--0-3--

Pre-Chorus 2x:
G|---------------------------------
D|---------------------------------
A|---------------------------------
D|-0-2-2-3-3-6-6-6-5-5-5-5-6-6-6-6-

Lead-In To Chorus 1x:
G|-----------------
D|-----------------
A|-----------------
D|-8-7-0-3-2-0-5-6-

Chorus pt.1 1x:
G|-------------------------------------------------------
D|-------------------------------------------------------
A|-------------------------------------------------------
D|-0-0-0-------0-0-0-------0-0-0--------0-0-0-----3\12/3-

Chorus pt.2 1x:
G|-------------------------------------------------------
D|-------------------------------------------------------
A|-------------------------------------------------------
D|-0-0-0-------0-0-0-------0-0-0-------0-0-0-------------

Bridge 4x:
G|----------------------------
D|----------------------------
A|----------------------------
D|-0*----6*----3*-----8--8-10-

Pre-Chorus 2x:
G|---------------------------------
D|---------------------------------
A|---------------------------------
D|-0-2-2-3-3-6-6-6-5-5-5-5-6-6-6-6-

Lead-In To Chorus 1x:
G|-----------------
D|-----------------
A|-----------------
D|-8-7-0-3-2-0-5-6-

Chorus pt.1 1x:
G|-------------------------------------------------------
D|-------------------------------------------------------
A|-------------------------------------------------------
D|-0-0-0-------0-0-0-------0-0-0--------0-0-0-----3\12/3-

Chorus pt.2 1x:
G|-------------------------------------------------------
D|-------------------------------------------------------
A|-------------------------------------------------------
D|-0-0-0-------0-0-0-------0-0-0-------0-0-0-------0-0-0-

That's it!  Other than the Lead-In, the song is really easy to play.  God Bless!
            

comments powered by Disqus
↑ Back to top | Project 86 Bass for Spy Hunter. Lyrics for acoustic guitar and electric guitar. Tablatures and chords are parodies/interpretations of the original songs. You may use it for private study, scholarship, research or language learning purposes only