» » »

Team Black Tabs (ver.1)

Artists:  A B C D E F G H I J K L M N O P Q R S T U V W X Y Z # 

Team Black Tabs (ver.1)

Project 86
Rating:
0/5 (0 votes)

Hard to play? Try these video lessons and learn fast.
                First time through the song jumps from VERSE to Part II CHORUS

INTRO and VERSE

e|--------------------------
B|--------------------------
G|--------------------------
D|---4----4-2-0----4---4-2-0
A|--2----0-------2----0-----
D|-2----0-------2----0------


PRE-CHORUS

e|-----------------------------------
B|-----------------------------------
G|-----------------------------------
D|-----------------------------------
A|-0-2-2-2-2-x-x-x-x-x-0-2-2-2-2--15\
D|-0-2-2-2-2-x-x-x-x-x-0-2-2-2-2--15\


CHORUS
Part I
e|----------------------------------------------------------------|
B|----------------------------------------------------------------|
G|----------------------------------------------------------------|
D|----------------------------------------------------------------|  x2
A|-0-2-2-2-0-2-2-2-0-2-2-2-0-2-2-2---2-0-0-0-0-----5-5-5-5-5-4-2-2|
D|-0-2-2-2-0-2-2-2-0-2-2-2-0-2-2-2---2-0-0-0-0-----5-5-5-5-5-4-2-2|

Part II
e|-------------------------------------------------|
B|-------------------------------------------------|
G|-------------------------------------------------|
D|-------------------------------------------------|  x2
A|-0-2-2-2-2-----2-2-2-2-0-0-0-0----5-5-5-5--10-10-|
D|-0-2-2-2-2-----2-2-2-2-0-0-0-0----5-5-5-5--10-10-|


At the end a guitar plays this between the pauses in the second part of
the CHORUS:

e|-------------------|
B|-------------------|
G|--7-7-7-7-7-7-7-7-7|
D|-------------------|  x2
A|--5-5-5-5-5-5-5-5-5|
D|-------------------|

INTERLUDE

e|------|
B|------|
G|------|
D|------|
A|--14\-|
D|--14\-|
            
Hard to play? Try these video lessons and learn fast. | Correct




comments powered by Disqus
↑ Back to top | Tablatures and chords are parodies/interpretations of the original songs. You may use it for private study, scholarship, research or language learning purposes only