» » »

Subject To Change Bass tabs (ver.1)

Artists:  A B C D E F G H I J K L M N O P Q R S T U V W X Y Z # 

Subject To Change Bass tabs (ver.1)

Project 86
Rating:
0/5 (0 votes)

Hard to play? Try these video lessons and learn fast.
                
Amazing song. My favorite from this album.

Intro/verse

G|-------------------------------------|
D|-------------------------------------|
A|-555555555555-7788-8-----------------|
D|--------------------77777777777-7555-|

Pre-Chorus

G|-------------------------------------|
D|-------------------------------------|
A|-------------------------------------|
D|-00000000-33333333-88888888-77777777-|

Chorus
     (slide really fast)
G|------------------------------------------|
D|------------------------------------------|
A|----5/12\-5---5/12\-6---5/12\-8---5/12\-6-|
D|-0----------0---------0---------0---------|


Breakdown
  (twelves and tens)
G|----------------------------|
D|----------------------------|
A|----------------------------|
D|-12-10-12-0~--0-5555/8-8/10-|

  (twelves and tens)
G|----------------------------|
D|----------------------------|
A|----------------------------|
D|-12-10-12-0~--0-5555/8-8/3--|


Bass Solo

G|-----------|
D|-----------|
A|-----------|X2
D|-0~-7-5-0~-|

G|---------------------------------------------|
D|---------------------------------------------|
A|---5--578--7/12-12-8-10-8-----5--578---------|x2
D|-0--0----7------------------0--0----77-55753-|


Intro/verse x8
Break
Intro/verse x4
Break
Pre-Chorus x2
Chorusx2
Intro/verse x4
Break
Pre-Chorus x2
Chorusx2
Breakdownx2
Bass Solo
Pre-Chorus x4
Chorusx2

Enjoy and God Bless!
            
Hard to play? Try these video lessons and learn fast. | Correct




comments powered by Disqus
↑ Back to top | Tablatures and chords are parodies/interpretations of the original songs. You may use it for private study, scholarship, research or language learning purposes only