» » »

Project 86, Spill Me Tabs (ver.1)

Artists:  A B C D E F G H I J K L M N O P Q R S T U V W X Y Z # 

Spill Me Tabs (ver.1)

Project 86 Tabs
Rating:
0/5 (0 votes)
Spill Me lessons Tabs too difficult? Try these video lessons and learn fast
                Project 86
Self Titled 1998
We Own Your Songs

Like all early Project songs this is very easy to play.
Tuning low to high: D A D G B E 
Intro:
D-----------
A-------1p0   x9
D---0-------
On the 10th time:
D-----------
A-------1--0
D----0-----0

Verse:
D—0-3-0-5-0-6-3-0
A—0-3-0-5-0-6-3-0    x4
D—0-3-0-5-0-6-3-0

Then:
D---0-0-0---0
A---0-0-0---0
D---0-0-0---0
      --p.m.-
Then Intro and back to Verse and then this:
D------------------------------------------------------------------------
A---13-13-13—12-12-12-12-12-----13-13-13-12-12-12-10-10  x4
D----------------------------------------------------------------------------------
        [---------------------------light P.M.---------------------------]
G----15-15-15---14-14-14-14-14----15-15-15-14-14-14-12-12
D-----------------------------------------------------------------------
A----13-13-13---12-12-12-12-12----13-13-13-12-12-12-10-10
D-----------------------------------------------------------------------

And then:
G---------------14(x15)-12(x15)---14(x15)
D---12-(x15)---------------------------------
A----------------------------------------------
D----------------------------------------------
       [--------------light P.M.----------------]

That’s pretty much it. This is a really cool song to play and shouldn’t be too hard to figure out. I might have missed a few small things but th rest of it is 100% right.
            

comments powered by Disqus
↑ Back to top | Project 86 Tabs for Spill Me. Lyrics for acoustic guitar and electric guitar. Tablatures and chords are parodies/interpretations of the original songs. You may use it for private study, scholarship, research or language learning purposes only