» » »

Solace Tabs (ver.1)

Artists:  A B C D E F G H I J K L M N O P Q R S T U V W X Y Z # 

Solace Tabs (ver.1)

Project 86
Rating:
0/5 (0 votes)

Hard to play? Try these video lessons and learn fast.
                "Solace"
Project 86
Songs to Burn Your Bridges By


Tuning:  Db, Ab, Db, Gb, Bb, Eb



INTRO and VERSE

Eb|--------------------
Bb|------------8--10--8
Gb|--9--10--7----------
Db|-7--7---7-----------
Ab|--------------------
Db|--------------------


PRE-CHORUS

Eb|--------------------
Bb|--------------------
Gb|--------------------
Db|--------------------
Ab|-7-7-7-7-7-7-7-7-7-7
Db|-7-7-7-7-7-7-7-7-7-7


CHORUS

Eb|-------------------------
Bb|--------------10--8--8h10
Gb|--9--10--9---------------
Db|-7--7---7---7------------
Ab|-------------------------
Db|-------------------------

BRIDGE

Eb|----------------------------------------------------------
Bb|----------------------------------------------------------
Gb|----------------------------------------------------------
Db|----------------------------------------------------------
Ab|-7-7--7--7-7--7--7-7--7--7-7---3-3--3--3-3--3--3-3--3--3-3
Db|-7-7--7--7-7--7--7-7--7--7-7---3-3--3--3-3--3--3-3--3--3-3


INTERLUDE

Eb|-----------------
Bb|-----------------
Gb|-----------------
Db|-----------------
Ab|--7-8-7----------
Db|-7------10-9-9h10


OUTRO

Eb|-----------------------------
Bb|-----------------------------
Gb|-----------------------------
Db|-----------------------------
Ab|-7-7--7--7-7--7--7-7--7--7-7-
Db|-7-7--7--7-7--7--7-7--7--7-7-
            
Hard to play? Try these video lessons and learn fast. | Correct




comments powered by Disqus
↑ Back to top | Tablatures and chords are parodies/interpretations of the original songs. You may use it for private study, scholarship, research or language learning purposes only