» » »

Project 86, S.M.C. Tabs (ver.1)

Artists:  A B C D E F G H I J K L M N O P Q R S T U V W X Y Z # 

S.M.C. Tabs (ver.1)

Project 86 Tabs
 Rating:
4/5 (4 votes)
S.M.C. lessons Tabs too difficult? Try these video lessons and learn fast
                Tuning: (D,A,D,G,b,e) (Low to High)


<> natural harmonics
p  pull off
h  hammer on
b  bend
)  tremelo pick while sliding
/  slide up
\  slide down
... play until you think it is time to move on.
PM  palm mute


NOTE: There are two layered guitars on this one. 
For the intro part after the power chords, the harmonic can be played,
or if you are good enough you can play the 10th fretted note on high e.
I find it easier to play a harmonic. They are the same note from what I can tell.

Intro/verse

|-----------------------|(10)----------8----------|------10------8----------|
|-----------------------|-----9------9------------|----9-------9------------|
|-----------------------|-------7--7--------------|-7--------7--------------|
|-000-333-55-666-555-33-|-<5>-------------h3/12\3-|-----------------h3/12\3-|
|-000-333-55-666-555-33-|-----------------h3/12\3-|-----------------h3/12\3-|
|-000-333-55-666-555-33-|-----------------h3/12\3-|-----------------h3/12\3-|

Riff 2
|-----------------------------|
|-----------------------------|
|-----------------------------|
|-8888-8888-10101010-10101010-|
|-8888-8888-10101010-10101010-|
|-8888-8888-10101010-10101010-|

2a first ending 
|-------------------------------------------|
|-------------------------------------------|
|-77-------------77-------------77----------|
|-77-------------77-------------77----------|
|-55-------------55-------------55----------|
|---<6>-<6>-<6>-----<6>-<6>-<6>----<6>-<6>--|

2b second ending
|---------------------------------|
|---------------------------------|
|--------------------------10--10-|
|-12-121012-121012-121012--10--10-|
|-12-121012-121012-121012---8---8-|
|-12-121012-121012-121012---------|

Riff 3
|----------------------------------|---|
|----------------------------------|---|
|--------------77------------------|---|
|-0-6-5-33-6-5-77-6-5-03-333\8-888-|-0-|
|-0-6-5-33-6-5-55-6-5-03-333\8-888-|-0-|
|-0-6-5-33-6-5----6-5-03-333\8-888-|-0-|

Let the D5 ring out then some feed back.
all that other noise you hear they don't play live. 
It's too hard to tab that noise.

Play this right before riff 4 starts.
|-------|
|-------|
|-------|
|-0-0---|
|-0-0---|
|-0-0---|
pm. .

Riff 4
|----------------------------------|
|----------------------------------|
|----------------------------------|
|----------------------------------|X4
|-----5-----6-----5----------------|
|-0-6---0-5---0-6----0-3-5-6-5-3-5-|

Right here, play riff 3 with Wah closed 
to get that funny sounding distortion. listen to song to
find out when to turn it off. then just play riff 3 a few more times then..


ending
|-------------|
|-------------|
|-7-7-7-7-7\--|
|-6-6-6-6-6\--|
|-5-5-5-5-5\--|
|-0-0-0-0-0\--|
            
Submit corrections

comments powered by Disqus
↑ Back to top | Project 86 Tabs for S.M.C.. Lyrics for acoustic guitar and electric guitar. Tablatures and chords are parodies/interpretations of the original songs. You may use it for private study, scholarship, research or language learning purposes only