» » »

Six Sirens Tabs (ver.2)

Artists:  A B C D E F G H I J K L M N O P Q R S T U V W X Y Z # 

Six Sirens Tabs (ver.2)

Project 86
Rating:
0/5 (0 votes)

Hard to play? Try these video lessons and learn fast.
                P=pull off
/pm\=palm mute
/slide up guitar
x=mute out strings and strum 
    Intro
e---------------------------
b---------------------------
g------7-------------------
d-3-0--7-0---3-0--3/6--0
a-3-0--5-0---3-0--3/6--0
e-3-0----0---3-0--3/6--0
 (x8)
Hours Past unsettled, unresolved my passions.(Bridge)
e-------------------------------------------------------------------------
b-------------------------------------------------------------------------
g---------------------7-7-7-7---------------------------------------------
d-3-0--3-0---0---3-0--7-7-7-7---------3-0--3-0--0---3-0--3/6--------------
a-3-0--3-0---0---3-0--5-5-5-5---------3-0--3-0--0---3-0--3/6--------------
e-3-0--3-0---0---3-0------------------3-0--3-0--0---3-0--3/6--------------
 (x2)
I smell a stench unavoidable approach...
e-----------------------
b-----------------------
g-----------------------
d--0-------------------
a--0-------------------
e--0-------------------
 (Let these notes ring and then go back and play the intro)

Death creeps like the breeze, but have no fear watch me inhale.
e-----------------------------------------------------------------------------
b-----------------------------------------------------------------------------
g-----------------------------------------------------------------------------
d-0-0---0--8-8-8------0-0---0--8-8-8------0-0---0--8-8-8------0-0---0--8-8-8-8
a-0-0---0--8-8-8------0-0---0--8-8-8------0-0---0--8-8-8------0-0---0--8-8-8-8
e-0-0---0--8-8-8------0-0---0--8-8-8------0-0---0--8-8-8------0-0---0--8-8-8-8
 (x4)

 Depths await my burial...(Part where he is whispering)
e------------------------------------------
b------------------------------------------
g---------------7----------------------5--
d-/----pm----\--7-/----pm---\----------5--
a---------------5----------------------3--
e--0--0----0-------0--0----0---3-0-3-0----
 (x8)

Now go back to death creeps like the breeze but have no fear watch me inhale and play it 4 times like before then play this.
e-------------------------------------------
b-------------------------------------------
g-------------------------------------------
d-8-8-8-8-8-8-8-8----x-x-x-x-x-x-x-x--------
a-8-8-8-8-8-8-8-8----x-x-x-x-x-x-x-x--------
e-8-8-8-8-8-8-8-8----x-x-x-x-x-x-x-x--------

Outro
e--------------------------
b--------------------------
g--------------------------
d-0-0---0---0-0-0---0-0----
a-0-0---0---0-0-0---0-0----
e-0-0---0---0-0-0---0-0----
            
Hard to play? Try these video lessons and learn fast. | Correct




comments powered by Disqus
↑ Back to top | Tablatures and chords are parodies/interpretations of the original songs. You may use it for private study, scholarship, research or language learning purposes only