» » »

Project 86, Set Me Up Bass tabs (ver.1)

Artists:  A B C D E F G H I J K L M N O P Q R S T U V W X Y Z # 

Set Me Up Bass tabs (ver.1)

Project 86 Tabs
Rating:
0/5 (0 votes)
Set Me Up lessons Tabs too difficult? Try these video lessons and learn fast
                
Intro
G|-------------------------
D|--------------------------
A|--------------------------
D|--0---0---0---0-1111-

Verse
G|----------------------
D|----------------------
A|--------5-------------
D|--6-0-----00-{5}--

Chorus(part 1)
G|-------------------------
D|------------------------
A|-------------------------
D|--0---0---0---0-1111-

Chorus(part 2)
G|----------------------------------
D|----------------------------------
A|----------------------------------
D|--0-{5}-0-{5}-0{5}-0-1111-

Bridge
G|-----------------------------------------------------------------------------
D|-----------------------------------------------------------------------------
A|-----------------------------------------------------------------------------
D|--0-----0001110-----0001110---0------0001110----0001110---0—

Bridge 2
G|------------------------
D|------------------------
A|------------------------
D|--60000-60000-600-
            
Submit corrections

comments powered by Disqus
↑ Back to top | Project 86 Bass for Set Me Up. Lyrics for acoustic guitar and electric guitar. Tablatures and chords are parodies/interpretations of the original songs. You may use it for private study, scholarship, research or language learning purposes only