>
 >
Safe Haven

Safe Haven Guitar Tabs

Project 86 - Safe Haven chords, tabs, tablatures, lyrics

Guitar lessons | Add/correct | Request | Top 50 tabs Artists:  A B C D E F G H I J K L M N O P Q R S T U V W X Y Z 0-9

Safe Haven Guitar Tabs – Project 86

CD, Sheet music, Poster

Do you like Safe Haven? Share with your friends now
ChordsTabsUkulele
"Safe Haven"
Project 86
Songs To Burn Your Bridges By


Tuning:
Db, Ab, Db, Gb, Bb, Eb

INTRO and VERSE
Eb|------------------------------------------------
Bb|------------------------------------------------
Gb|------------------------------------------------
Db|-7-7-7-7-7-7-2-2-2-2-2-2-1-1-1-1-1-1-5-5-5-5-5-5
Ab|-5-5-5-5-5-5-1-1-1-1-1-1-0-0-0-0-0-0-3-3-3-3-3-3
Db|------------------------------------------------

Eb|------------------------------------------------
Bb|------------------------------------------------
Gb|------------------------------------------------
Db|-7-7-7-7-7-7-2-2-2-2-2-2-1-1-1-1-1-1------------
Ab|-5-5-5-5-5-5-1-1-1-1-1-1-0-0-0-0-0-0-3-3-3-3-3-3
Db|-------------------------------------3-3-3-3-3-3

PRE-CHORUS
And even though I'm not alone...
Eb|---------------------------
Bb|---------------------------
Gb|---------------------------
Db|-------------------7---5---
Ab|-5-3-5-3-5-3-5-3-5--8----5-
Db|---------------------------

CHORUS
Eb|---------------------------------------------------
Bb|---------------------------------------------------
Gb|---------------------------------------------------
Db|--------7-7-7-7-7-7-7-3-3-3-10-10-10-10-12-12-12-12
Ab|-0-0-0--5-5-5-5-5-5-5-3-3-3-8--8--8--8--10-10-10-10
Db|-0-0-0----------------3-3-3------------------------


Eb|-----------------------------------------------
Bb|-----------------------------------------------
Gb|-----------------------------------------------
Db|--------7-7-7-7-7-7-7-3-3-3-3-5-5-5-5----7-----
Ab|-0-0-0--5-5-5-5-5-5-5-1-1-1-1-3-3-3-3----5-----
Db|-0-0-0-----------------------------------------

BRIDGE

Eb|----------------------------------
Bb|-10-10-10-9--10-10-10-9--10-10-9--
Gb|----------------------------------
Db|----------------------------------
Ab|----------------------------------
Db|----------------------------------

Play Pre-CHORUS then:

"And in our our eyes we"
Eb|------------------------
Bb|------------------------
Gb|------------------------
Db|-7--3--5------7--3-----5
Ab|-5--1--3--5---5--1--5--3
Db|----------5---------5---


OUTRO
Eb|----------------------
Bb|----------------------
Gb|----------------------
Db|----------------------
Ab|-0-0-0--0--0-0-0--0-->
Db|-0-0-0--0--0-0-0--0-->





Comments


Popular Project 86 tabs & chords
Hollow Again Bass Tabs
Pipe Dreams Bass Tabs
Put Your Lips To The Tv Bass Tabs
The Sanctuary Hum Bass Tabs
Bottom Feeder Tabs
Breakdown In 3 4 Tabs
Me Against Me 1 Tabs
My Will Be A Dead Man Tabs
Sincerely Ichabod 1 Tabs
Slaves To Liberty 2 Tabs


Song lyrics



↑ Back to top | Tablatures and chords are parodies/interpretations of the original songs. You may use it for private study, scholarship, research or language learning purposes only
© 2014 AZChords.com Contact us | Privacy policy | DMCA | Add/correct tabs | Request tabs | Top 50 tabs